ISO-10303-21;
HEADER;
FILE_DESCRIPTION (( 'STEP AP203' ),
    '1' );
FILE_NAME ('2178.STEP',
    '2023-02-13T14:19:09',
    ( '' ),
    ( '' ),
    'SwSTEP 2.0',
    'SolidWorks 2019',
    '' );
FILE_SCHEMA (( 'CONFIG_CONTROL_DESIGN' ));
ENDSEC;

DATA;
#1 = CARTESIAN_POINT ( 'NONE',  ( 4.000000000000000000, 4.898587196589411843E-16, 315.0000000000000000 ) ) ;
#2 = PERSON_AND_ORGANIZATION ( #94, #128 ) ;
#3 = APPROVAL_PERSON_ORGANIZATION ( #2, #242, #61 ) ;
#4 = DATE_AND_TIME ( #26, #157 ) ;
#5 = EDGE_CURVE ( 'NONE', #120, #114, #15, .T. ) ;
#6 = DIRECTION ( 'NONE',  ( 0.000000000000000000, 0.000000000000000000, 1.000000000000000000 ) ) ;
#7 = CARTESIAN_POINT ( 'NONE',  ( 0.000000000000000000, 0.000000000000000000, 315.0000000000000000 ) ) ;
#8 = ORIENTED_EDGE ( 'NONE', *, *, #59, .F. ) ;
#9 = CC_DESIGN_PERSON_AND_ORGANIZATION_ASSIGNMENT ( #107, #226, ( #52 ) ) ;
#10 = CIRCLE ( 'NONE', #189, 4.000000000000000000 ) ;
#11 = CARTESIAN_POINT ( 'NONE',  ( 0.000000000000000000, 0.000000000000000000, 315.0000000000000000 ) ) ;
#12 = CARTESIAN_POINT ( 'NONE',  ( 0.000000000000000000, 0.000000000000000000, 6.500000000000000000 ) ) ;
#13 = CYLINDRICAL_SURFACE ( 'NONE', #88, 4.000000000000000000 ) ;
#14 = CARTESIAN_POINT ( 'NONE',  ( 0.000000000000000000, 0.000000000000000000, 6.500000000000000000 ) ) ;
#15 = CIRCLE ( 'NONE', #149, 7.000000000000000000 ) ;
#16 = DIRECTION ( 'NONE',  ( 1.000000000000000000, 0.000000000000000000, 0.000000000000000000 ) ) ;
#17 = EDGE_LOOP ( 'NONE', ( #252, #109, #241, #87 ) ) ;
#18 = VERTEX_POINT ( 'NONE', #249 ) ;
#19 = ORIENTED_EDGE ( 'NONE', *, *, #59, .T. ) ;
#20 = ADVANCED_FACE ( 'NONE', ( #131 ), #50, .T. ) ;
#21 = PERSON_AND_ORGANIZATION_ROLE ( 'design_owner' ) ;
#22 = CARTESIAN_POINT ( 'NONE',  ( 0.000000000000000000, 0.000000000000000000, 315.0000000000000000 ) ) ;
#23 = CIRCLE ( 'NONE', #197, 4.000000000000000000 ) ;
#24 = PRODUCT_DEFINITION ( 'NEZNÁMÝ', '', #223, #47 ) ;
#25 = LOCAL_TIME ( 15, 19, 9.000000000000000000, #247 ) ;
#26 = CALENDAR_DATE ( 2023, 13, 2 ) ;
#27 = PERSON_AND_ORGANIZATION ( #94, #128 ) ;
#28 = ORIENTED_EDGE ( 'NONE', *, *, #254, .T. ) ;
#29 = DIRECTION ( 'NONE',  ( 0.000000000000000000, 0.000000000000000000, 1.000000000000000000 ) ) ;
#30 =( LENGTH_UNIT ( ) NAMED_UNIT ( * ) SI_UNIT ( .MILLI., .METRE. ) );
#31 = VECTOR ( 'NONE', #99, 1000.000000000000000 ) ;
#32 = ORIENTED_EDGE ( 'NONE', *, *, #167, .T. ) ;
#33 = CARTESIAN_POINT ( 'NONE',  ( 0.000000000000000000, 0.000000000000000000, 315.0000000000000000 ) ) ;
#34 = APPROVAL_PERSON_ORGANIZATION ( #195, #126, #183 ) ;
#35 = CARTESIAN_POINT ( 'NONE',  ( 4.000000000000000000, 4.898587196589411843E-16, 315.0000000000000000 ) ) ;
#36 = DIRECTION ( 'NONE',  ( 0.000000000000000000, 0.000000000000000000, 1.000000000000000000 ) ) ;
#37 = CARTESIAN_POINT ( 'NONE',  ( 0.000000000000000000, 0.000000000000000000, 6.500000000000000000 ) ) ;
#38 = EDGE_CURVE ( 'NONE', #40, #202, #42, .T. ) ;
#39 = VERTEX_POINT ( 'NONE', #35 ) ;
#40 = VERTEX_POINT ( 'NONE', #54 ) ;
#41 = EDGE_CURVE ( 'NONE', #202, #40, #10, .T. ) ;
#42 = CIRCLE ( 'NONE', #134, 4.000000000000000000 ) ;
#43 = CARTESIAN_POINT ( 'NONE',  ( 0.000000000000000000, 0.000000000000000000, 315.0000000000000000 ) ) ;
#44 = MANIFOLD_SOLID_BREP ( 'Pøidat vysunutím3', #184 ) ;
#45 = PRODUCT_DEFINITION_SHAPE ( 'NONE', 'NONE',  #24 ) ;
#46 = APPROVAL_STATUS ( 'not_yet_approved' ) ;
#47 = DESIGN_CONTEXT ( 'detailed design', #77, 'design' ) ;
#48 = AXIS2_PLACEMENT_3D ( 'NONE', #33, #92, #229 ) ;
#49 = CARTESIAN_POINT ( 'NONE',  ( 7.000000000000000000, 8.572527594031471218E-16, 6.500000000000000000 ) ) ;
#50 = CYLINDRICAL_SURFACE ( 'NONE', #163, 7.000000000000000000 ) ;
#51 = DATE_AND_TIME ( #132, #25 ) ;
#52 = SECURITY_CLASSIFICATION ( '', '', #221 ) ;
#53 = CARTESIAN_POINT ( 'NONE',  ( 0.000000000000000000, 0.000000000000000000, 0.000000000000000000 ) ) ;
#54 = CARTESIAN_POINT ( 'NONE',  ( -4.000000000000000000, 0.000000000000000000, 6.500000000000000000 ) ) ;
#55 = ORIENTED_EDGE ( 'NONE', *, *, #111, .T. ) ;
#56 = ORIENTED_EDGE ( 'NONE', *, *, #186, .T. ) ;
#57 = AXIS2_PLACEMENT_3D ( 'NONE', #14, #191, #63 ) ;
#58 = EDGE_CURVE ( 'NONE', #233, #114, #194, .T. ) ;
#59 = EDGE_CURVE ( 'NONE', #18, #40, #165, .T. ) ;
#60 = AXIS2_PLACEMENT_3D ( 'NONE', #22, #101, #102 ) ;
#61 = APPROVAL_ROLE ( '' ) ;
#62 = CALENDAR_DATE ( 2023, 13, 2 ) ;
#63 = DIRECTION ( 'NONE',  ( -1.000000000000000000, 0.000000000000000000, 0.000000000000000000 ) ) ;
#64 = CC_DESIGN_PERSON_AND_ORGANIZATION_ASSIGNMENT ( #200, #21, ( #127 ) ) ;
#65 = APPLICATION_CONTEXT ( 'configuration controlled 3d designs of mechanical parts and assemblies' ) ;
#66 = DIRECTION ( 'NONE',  ( 1.000000000000000000, 0.000000000000000000, -0.000000000000000000 ) ) ;
#67 = CARTESIAN_POINT ( 'NONE',  ( 0.000000000000000000, 0.000000000000000000, 6.500000000000000000 ) ) ;
#68 = ORIENTED_EDGE ( 'NONE', *, *, #41, .T. ) ;
#69 = VECTOR ( 'NONE', #124, 1000.000000000000000 ) ;
#70 = DIRECTION ( 'NONE',  ( -1.000000000000000000, 0.000000000000000000, 0.000000000000000000 ) ) ;
#71 = EDGE_LOOP ( 'NONE', ( #253, #240 ) ) ;
#72 = EDGE_CURVE ( 'NONE', #39, #202, #219, .T. ) ;
#73 = ORIENTED_EDGE ( 'NONE', *, *, #186, .F. ) ;
#74 = EDGE_LOOP ( 'NONE', ( #98, #155 ) ) ;
#75 = MECHANICAL_CONTEXT ( 'NONE', #65, 'mechanical' ) ;
#76 = CALENDAR_DATE ( 2023, 13, 2 ) ;
#77 = APPLICATION_CONTEXT ( 'configuration controlled 3d designs of mechanical parts and assemblies' ) ;
#78 = DIRECTION ( 'NONE',  ( 1.000000000000000000, 0.000000000000000000, 0.000000000000000000 ) ) ;
#79 = PRODUCT_RELATED_PRODUCT_CATEGORY ( 'detail', '', ( #127 ) ) ;
#80 = COORDINATED_UNIVERSAL_TIME_OFFSET ( 1, 0, .AHEAD. ) ;
#81 = CARTESIAN_POINT ( 'NONE',  ( 7.000000000000000000, 8.572527594031471218E-16, 0.000000000000000000 ) ) ;
#82 = EDGE_CURVE ( 'NONE', #39, #18, #143, .T. ) ;
#83 = AXIS2_PLACEMENT_3D ( 'NONE', #67, #36, #108 ) ;
#84 = CARTESIAN_POINT ( 'NONE',  ( -7.000000000000000000, 0.000000000000000000, 0.000000000000000000 ) ) ;
#85 = FACE_OUTER_BOUND ( 'NONE', #93, .T. ) ;
#86 = FACE_OUTER_BOUND ( 'NONE', #182, .T. ) ;
#87 = ORIENTED_EDGE ( 'NONE', *, *, #5, .T. ) ;
#88 = AXIS2_PLACEMENT_3D ( 'NONE', #11, #152, #70 ) ;
#89 = DIRECTION ( 'NONE',  ( 1.000000000000000000, 0.000000000000000000, -0.000000000000000000 ) ) ;
#90 = DIRECTION ( 'NONE',  ( -0.000000000000000000, -0.000000000000000000, -1.000000000000000000 ) ) ;
#91 = FACE_OUTER_BOUND ( 'NONE', #153, .T. ) ;
#92 = DIRECTION ( 'NONE',  ( -0.000000000000000000, -0.000000000000000000, -1.000000000000000000 ) ) ;
#93 = EDGE_LOOP ( 'NONE', ( #216, #255, #19, #142 ) ) ;
#94 = PERSON ( 'NEURÈENÝ', 'NEURÈENÝ', 'NEURÈENÝ', ('NEURÈENÝ'), ('NEURÈENÝ'), ('NEURÈENÝ') ) ;
#95 = ORIENTED_EDGE ( 'NONE', *, *, #122, .F. ) ;
#96 = APPROVAL_STATUS ( 'not_yet_approved' ) ;
#97 = CARTESIAN_POINT ( 'NONE',  ( 7.000000000000000000, 8.572527594031471218E-16, 6.500000000000000000 ) ) ;
#98 = ORIENTED_EDGE ( 'NONE', *, *, #38, .F. ) ;
#99 = DIRECTION ( 'NONE',  ( -0.000000000000000000, -0.000000000000000000, -1.000000000000000000 ) ) ;
#100 = CIRCLE ( 'NONE', #83, 7.000000000000000000 ) ;
#101 = DIRECTION ( 'NONE',  ( 0.000000000000000000, 0.000000000000000000, 1.000000000000000000 ) ) ;
#102 = DIRECTION ( 'NONE',  ( 1.000000000000000000, 0.000000000000000000, 0.000000000000000000 ) ) ;
#103 = APPROVAL_DATE_TIME ( #246, #126 ) ;
#104 = LOCAL_TIME ( 15, 19, 9.000000000000000000, #129 ) ;
#105 = COORDINATED_UNIVERSAL_TIME_OFFSET ( 1, 0, .AHEAD. ) ;
#106 = CC_DESIGN_PERSON_AND_ORGANIZATION_ASSIGNMENT ( #204, #169, ( #223 ) ) ;
#107 = PERSON_AND_ORGANIZATION ( #94, #128 ) ;
#108 = DIRECTION ( 'NONE',  ( 1.000000000000000000, 0.000000000000000000, 0.000000000000000000 ) ) ;
#109 = ORIENTED_EDGE ( 'NONE', *, *, #167, .F. ) ;
#110 = CYLINDRICAL_SURFACE ( 'NONE', #57, 7.000000000000000000 ) ;
#111 = EDGE_CURVE ( 'NONE', #18, #39, #23, .T. ) ;
#112 = ORIENTED_EDGE ( 'NONE', *, *, #82, .T. ) ;
#113 = CARTESIAN_POINT ( 'NONE',  ( 0.000000000000000000, 0.000000000000000000, 0.000000000000000000 ) ) ;
#114 = VERTEX_POINT ( 'NONE', #81 ) ;
#115 = PLANE ( 'NONE',  #140 ) ;
#116 = CC_DESIGN_APPROVAL ( #230, ( #52 ) ) ;
#117 = DIRECTION ( 'NONE',  ( 0.000000000000000000, 0.000000000000000000, 1.000000000000000000 ) ) ;
#118 = CARTESIAN_POINT ( 'NONE',  ( 0.000000000000000000, 0.000000000000000000, 6.500000000000000000 ) ) ;
#119 = DIRECTION ( 'NONE',  ( 0.000000000000000000, 0.000000000000000000, 1.000000000000000000 ) ) ;
#120 = VERTEX_POINT ( 'NONE', #84 ) ;
#121 = AXIS2_PLACEMENT_3D ( 'NONE', #220, #125, #203 ) ;
#122 = EDGE_CURVE ( 'NONE', #123, #120, #170, .T. ) ;
#123 = VERTEX_POINT ( 'NONE', #130 ) ;
#124 = DIRECTION ( 'NONE',  ( -0.000000000000000000, -0.000000000000000000, -1.000000000000000000 ) ) ;
#125 = DIRECTION ( 'NONE',  ( 0.000000000000000000, 0.000000000000000000, 1.000000000000000000 ) ) ;
#126 = APPROVAL ( #96, 'NEURÈENÝ' ) ;
#127 = PRODUCT ( '2178', '2178', '', ( #75 ) ) ;
#128 = ORGANIZATION ( 'NEURÈENÝ', 'NEURÈENÝ', '' ) ;
#129 = COORDINATED_UNIVERSAL_TIME_OFFSET ( 1, 0, .AHEAD. ) ;
#130 = CARTESIAN_POINT ( 'NONE',  ( -7.000000000000000000, 0.000000000000000000, 6.500000000000000000 ) ) ;
#131 = FACE_OUTER_BOUND ( 'NONE', #17, .T. ) ;
#132 = CALENDAR_DATE ( 2023, 13, 2 ) ;
#133 = FACE_BOUND ( 'NONE', #74, .T. ) ;
#134 = AXIS2_PLACEMENT_3D ( 'NONE', #37, #119, #212 ) ;
#135 = LOCAL_TIME ( 15, 19, 9.000000000000000000, #80 ) ;
#136 = PLANE ( 'NONE',  #175 ) ;
#137 = DIRECTION ( 'NONE',  ( 0.000000000000000000, 0.000000000000000000, 1.000000000000000000 ) ) ;
#138 = CARTESIAN_POINT ( 'NONE',  ( 0.000000000000000000, 0.000000000000000000, 6.500000000000000000 ) ) ;
#139 = ORIENTED_EDGE ( 'NONE', *, *, #58, .T. ) ;
#140 = AXIS2_PLACEMENT_3D ( 'NONE', #156, #137, #66 ) ;
#141 = CC_DESIGN_APPROVAL ( #242, ( #24 ) ) ;
#142 = ORIENTED_EDGE ( 'NONE', *, *, #38, .T. ) ;
#143 = CIRCLE ( 'NONE', #60, 4.000000000000000000 ) ;
#144 = ADVANCED_FACE ( 'NONE', ( #173 ), #115, .F. ) ;
#145 = CC_DESIGN_APPROVAL ( #126, ( #223 ) ) ;
#146 = APPROVAL_DATE_TIME ( #171, #230 ) ;
#147 = PERSON_AND_ORGANIZATION_ROLE ( 'creator' ) ;
#148 = ADVANCED_FACE ( 'NONE', ( #158 ), #110, .T. ) ;
#149 = AXIS2_PLACEMENT_3D ( 'NONE', #113, #177, #192 ) ;
#150 = DATE_TIME_ROLE ( 'classification_date' ) ;
#151 = DIRECTION ( 'NONE',  ( 1.000000000000000000, 0.000000000000000000, 0.000000000000000000 ) ) ;
#152 = DIRECTION ( 'NONE',  ( -0.000000000000000000, -0.000000000000000000, -1.000000000000000000 ) ) ;
#153 = EDGE_LOOP ( 'NONE', ( #32, #56 ) ) ;
#154 = CARTESIAN_POINT ( 'NONE',  ( 0.000000000000000000, 0.000000000000000000, 6.500000000000000000 ) ) ;
#155 = ORIENTED_EDGE ( 'NONE', *, *, #41, .F. ) ;
#156 = CARTESIAN_POINT ( 'NONE',  ( 0.000000000000000000, 0.000000000000000000, 0.000000000000000000 ) ) ;
#157 = LOCAL_TIME ( 15, 19, 9.000000000000000000, #105 ) ;
#158 = FACE_OUTER_BOUND ( 'NONE', #215, .T. ) ;
#159 = CC_DESIGN_SECURITY_CLASSIFICATION ( #52, ( #223 ) ) ;
#160 = ORIENTED_EDGE ( 'NONE', *, *, #72, .T. ) ;
#161 = APPLICATION_PROTOCOL_DEFINITION ( 'international standard', 'config_control_design', 1994, #65 ) ;
#162 = DIRECTION ( 'NONE',  ( -0.000000000000000000, -0.000000000000000000, -1.000000000000000000 ) ) ;
#163 = AXIS2_PLACEMENT_3D ( 'NONE', #12, #90, #239 ) ;
#164 = CARTESIAN_POINT ( 'NONE',  ( -4.000000000000000000, 0.000000000000000000, 315.0000000000000000 ) ) ;
#165 = LINE ( 'NONE', #164, #69 ) ;
#166 = CIRCLE ( 'NONE', #187, 7.000000000000000000 ) ;
#167 = EDGE_CURVE ( 'NONE', #123, #233, #100, .T. ) ;
#168 = CC_DESIGN_DATE_AND_TIME_ASSIGNMENT ( #4, #150, ( #52 ) ) ;
#169 = PERSON_AND_ORGANIZATION_ROLE ( 'design_supplier' ) ;
#170 = LINE ( 'NONE', #210, #227 ) ;
#171 = DATE_AND_TIME ( #62, #207 ) ;
#172 = APPROVAL_ROLE ( '' ) ;
#173 = FACE_OUTER_BOUND ( 'NONE', #71, .T. ) ;
#174 = APPROVAL_DATE_TIME ( #225, #242 ) ;
#175 = AXIS2_PLACEMENT_3D ( 'NONE', #7, #180, #234 ) ;
#176 =( NAMED_UNIT ( * ) PLANE_ANGLE_UNIT ( ) SI_UNIT ( $, .RADIAN. ) );
#177 = DIRECTION ( 'NONE',  ( 0.000000000000000000, 0.000000000000000000, 1.000000000000000000 ) ) ;
#178 = PERSON_AND_ORGANIZATION_ROLE ( 'creator' ) ;
#179 = PLANE ( 'NONE',  #236 ) ;
#180 = DIRECTION ( 'NONE',  ( 0.000000000000000000, 0.000000000000000000, 1.000000000000000000 ) ) ;
#181 = APPROVAL_PERSON_ORGANIZATION ( #222, #230, #172 ) ;
#182 = EDGE_LOOP ( 'NONE', ( #198, #160, #68, #8 ) ) ;
#183 = APPROVAL_ROLE ( '' ) ;
#184 = CLOSED_SHELL ( 'NONE', ( #196, #148, #20, #245, #144, #224, #208 ) ) ;
#185 = APPLICATION_PROTOCOL_DEFINITION ( 'international standard', 'config_control_design', 1994, #77 ) ;
#186 = EDGE_CURVE ( 'NONE', #233, #123, #166, .T. ) ;
#187 = AXIS2_PLACEMENT_3D ( 'NONE', #154, #190, #151 ) ;
#188 = PERSON_AND_ORGANIZATION ( #94, #128 ) ;
#189 = AXIS2_PLACEMENT_3D ( 'NONE', #138, #117, #16 ) ;
#190 = DIRECTION ( 'NONE',  ( 0.000000000000000000, 0.000000000000000000, 1.000000000000000000 ) ) ;
#191 = DIRECTION ( 'NONE',  ( -0.000000000000000000, -0.000000000000000000, -1.000000000000000000 ) ) ;
#192 = DIRECTION ( 'NONE',  ( 1.000000000000000000, 0.000000000000000000, 0.000000000000000000 ) ) ;
#193 = CIRCLE ( 'NONE', #243, 7.000000000000000000 ) ;
#194 = LINE ( 'NONE', #97, #31 ) ;
#195 = PERSON_AND_ORGANIZATION ( #94, #128 ) ;
#196 = ADVANCED_FACE ( 'NONE', ( #86 ), #211, .T. ) ;
#197 = AXIS2_PLACEMENT_3D ( 'NONE', #43, #6, #78 ) ;
#198 = ORIENTED_EDGE ( 'NONE', *, *, #82, .F. ) ;
#199 = CC_DESIGN_PERSON_AND_ORGANIZATION_ASSIGNMENT ( #188, #147, ( #223 ) ) ;
#200 = PERSON_AND_ORGANIZATION ( #94, #128 ) ;
#201 = COORDINATED_UNIVERSAL_TIME_OFFSET ( 1, 0, .AHEAD. ) ;
#202 = VERTEX_POINT ( 'NONE', #238 ) ;
#203 = DIRECTION ( 'NONE',  ( 1.000000000000000000, 0.000000000000000000, 0.000000000000000000 ) ) ;
#204 = PERSON_AND_ORGANIZATION ( #94, #128 ) ;
#205 = CALENDAR_DATE ( 2023, 13, 2 ) ;
#206 = SHAPE_DEFINITION_REPRESENTATION ( #45, #232 ) ;
#207 = LOCAL_TIME ( 15, 19, 9.000000000000000000, #201 ) ;
#208 = ADVANCED_FACE ( 'NONE', ( #251 ), #136, .T. ) ;
#209 = DIRECTION ( 'NONE',  ( 0.000000000000000000, 0.000000000000000000, 1.000000000000000000 ) ) ;
#210 = CARTESIAN_POINT ( 'NONE',  ( -7.000000000000000000, 0.000000000000000000, 6.500000000000000000 ) ) ;
#211 = CYLINDRICAL_SURFACE ( 'NONE', #48, 4.000000000000000000 ) ;
#212 = DIRECTION ( 'NONE',  ( 1.000000000000000000, 0.000000000000000000, 0.000000000000000000 ) ) ;
#213 = DATE_TIME_ROLE ( 'creation_date' ) ;
#214 =( NAMED_UNIT ( * ) SI_UNIT ( $, .STERADIAN. ) SOLID_ANGLE_UNIT ( ) );
#215 = EDGE_LOOP ( 'NONE', ( #73, #139, #28, #95 ) ) ;
#216 = ORIENTED_EDGE ( 'NONE', *, *, #72, .F. ) ;
#217 = CC_DESIGN_DATE_AND_TIME_ASSIGNMENT ( #51, #213, ( #24 ) ) ;
#218 = EDGE_LOOP ( 'NONE', ( #55, #112 ) ) ;
#219 = LINE ( 'NONE', #1, #250 ) ;
#220 = CARTESIAN_POINT ( 'NONE',  ( 0.000000000000000000, 0.000000000000000000, 0.000000000000000000 ) ) ;
#221 = SECURITY_CLASSIFICATION_LEVEL ( 'unclassified' ) ;
#222 = PERSON_AND_ORGANIZATION ( #94, #128 ) ;
#223 = PRODUCT_DEFINITION_FORMATION_WITH_SPECIFIED_SOURCE ( 'LIBOVOLNÝ', '', #127, .NOT_KNOWN. ) ;
#224 = ADVANCED_FACE ( 'NONE', ( #85 ), #13, .T. ) ;
#225 = DATE_AND_TIME ( #205, #104 ) ;
#226 = PERSON_AND_ORGANIZATION_ROLE ( 'classification_officer' ) ;
#227 = VECTOR ( 'NONE', #235, 1000.000000000000000 ) ;
#228 =( GEOMETRIC_REPRESENTATION_CONTEXT ( 3 ) GLOBAL_UNCERTAINTY_ASSIGNED_CONTEXT ( ( #248 ) ) GLOBAL_UNIT_ASSIGNED_CONTEXT ( ( #30, #176, #214 ) ) REPRESENTATION_CONTEXT ( 'NONE', 'WORKASPACE' ) );
#229 = DIRECTION ( 'NONE',  ( -1.000000000000000000, 0.000000000000000000, 0.000000000000000000 ) ) ;
#230 = APPROVAL ( #46, 'NEURÈENÝ' ) ;
#231 = DIRECTION ( 'NONE',  ( 1.000000000000000000, 0.000000000000000000, 0.000000000000000000 ) ) ;
#232 = ADVANCED_BREP_SHAPE_REPRESENTATION ( '2178', ( #44, #121 ), #228 ) ;
#233 = VERTEX_POINT ( 'NONE', #49 ) ;
#234 = DIRECTION ( 'NONE',  ( 1.000000000000000000, 0.000000000000000000, -0.000000000000000000 ) ) ;
#235 = DIRECTION ( 'NONE',  ( -0.000000000000000000, -0.000000000000000000, -1.000000000000000000 ) ) ;
#236 = AXIS2_PLACEMENT_3D ( 'NONE', #118, #209, #89 ) ;
#237 = CC_DESIGN_PERSON_AND_ORGANIZATION_ASSIGNMENT ( #27, #178, ( #24 ) ) ;
#238 = CARTESIAN_POINT ( 'NONE',  ( 4.000000000000000000, 4.898587196589411843E-16, 6.500000000000000000 ) ) ;
#239 = DIRECTION ( 'NONE',  ( -1.000000000000000000, 0.000000000000000000, 0.000000000000000000 ) ) ;
#240 = ORIENTED_EDGE ( 'NONE', *, *, #254, .F. ) ;
#241 = ORIENTED_EDGE ( 'NONE', *, *, #122, .T. ) ;
#242 = APPROVAL ( #244, 'NEURÈENÝ' ) ;
#243 = AXIS2_PLACEMENT_3D ( 'NONE', #53, #29, #231 ) ;
#244 = APPROVAL_STATUS ( 'not_yet_approved' ) ;
#245 = ADVANCED_FACE ( 'NONE', ( #133, #91 ), #179, .T. ) ;
#246 = DATE_AND_TIME ( #76, #135 ) ;
#247 = COORDINATED_UNIVERSAL_TIME_OFFSET ( 1, 0, .AHEAD. ) ;
#248 = UNCERTAINTY_MEASURE_WITH_UNIT (LENGTH_MEASURE( 1.000000000000000082E-05 ), #30, 'distance_accuracy_value', 'NONE');
#249 = CARTESIAN_POINT ( 'NONE',  ( -4.000000000000000000, 0.000000000000000000, 315.0000000000000000 ) ) ;
#250 = VECTOR ( 'NONE', #162, 1000.000000000000000 ) ;
#251 = FACE_OUTER_BOUND ( 'NONE', #218, .T. ) ;
#252 = ORIENTED_EDGE ( 'NONE', *, *, #58, .F. ) ;
#253 = ORIENTED_EDGE ( 'NONE', *, *, #5, .F. ) ;
#254 = EDGE_CURVE ( 'NONE', #114, #120, #193, .T. ) ;
#255 = ORIENTED_EDGE ( 'NONE', *, *, #111, .F. ) ;
ENDSEC;
END-ISO-10303-21;
