ISO-10303-21;
HEADER;
FILE_DESCRIPTION (( 'STEP AP203' ),
    '1' );
FILE_NAME ('c45b.STEP',
    '2023-02-13T17:14:23',
    ( '' ),
    ( '' ),
    'SwSTEP 2.0',
    'SolidWorks 2019',
    '' );
FILE_SCHEMA (( 'CONFIG_CONTROL_DESIGN' ));
ENDSEC;

DATA;
#1 = ADVANCED_FACE ( 'NONE', ( #145 ), #238, .T. ) ;
#2 = APPROVAL ( #68, 'NEURÈENÝ' ) ;
#3 = CIRCLE ( 'NONE', #64, 2.000000000000000000 ) ;
#4 = CARTESIAN_POINT ( 'NONE',  ( 0.000000000000000000, 0.000000000000000000, 0.000000000000000000 ) ) ;
#5 = DIRECTION ( 'NONE',  ( 1.000000000000000000, 0.000000000000000000, 0.000000000000000000 ) ) ;
#6 = DIRECTION ( 'NONE',  ( 1.000000000000000000, 0.000000000000000000, 0.000000000000000000 ) ) ;
#7 = APPROVAL_PERSON_ORGANIZATION ( #133, #240, #242 ) ;
#8 = ORIENTED_EDGE ( 'NONE', *, *, #98, .T. ) ;
#9 = DIRECTION ( 'NONE',  ( 1.000000000000000000, 0.000000000000000000, 0.000000000000000000 ) ) ;
#10 = AXIS2_PLACEMENT_3D ( 'NONE', #106, #151, #176 ) ;
#11 = CARTESIAN_POINT ( 'NONE',  ( -1.000000000000000000, 0.000000000000000000, 2.000000000000000000 ) ) ;
#12 = CARTESIAN_POINT ( 'NONE',  ( 0.000000000000000000, 0.000000000000000000, 2.000000000000000000 ) ) ;
#13 = EDGE_CURVE ( 'NONE', #233, #66, #72, .T. ) ;
#14 = UNCERTAINTY_MEASURE_WITH_UNIT (LENGTH_MEASURE( 1.000000000000000082E-05 ), #237, 'distance_accuracy_value', 'NONE');
#15 = CALENDAR_DATE ( 2023, 13, 2 ) ;
#16 = SECURITY_CLASSIFICATION ( '', '', #22 ) ;
#17 = APPROVAL_STATUS ( 'not_yet_approved' ) ;
#18 = CC_DESIGN_PERSON_AND_ORGANIZATION_ASSIGNMENT ( #79, #137, ( #165 ) ) ;
#19 = AXIS2_PLACEMENT_3D ( 'NONE', #83, #156, #75 ) ;
#20 = CIRCLE ( 'NONE', #112, 1.000000000000000000 ) ;
#21 = CC_DESIGN_DATE_AND_TIME_ASSIGNMENT ( #54, #140, ( #16 ) ) ;
#22 = SECURITY_CLASSIFICATION_LEVEL ( 'unclassified' ) ;
#23 = CARTESIAN_POINT ( 'NONE',  ( -1.000000000000000000, 0.000000000000000000, 200.0000000000000000 ) ) ;
#24 = EDGE_LOOP ( 'NONE', ( #8, #157 ) ) ;
#25 = DIRECTION ( 'NONE',  ( -0.000000000000000000, -0.000000000000000000, -1.000000000000000000 ) ) ;
#26 = VECTOR ( 'NONE', #170, 1000.000000000000000 ) ;
#27 = PRODUCT_DEFINITION_SHAPE ( 'NONE', 'NONE',  #92 ) ;
#28 = EDGE_LOOP ( 'NONE', ( #58, #246, #199, #152 ) ) ;
#29 = DATE_AND_TIME ( #82, #195 ) ;
#30 = DIRECTION ( 'NONE',  ( 0.000000000000000000, 0.000000000000000000, 1.000000000000000000 ) ) ;
#31 = PERSON_AND_ORGANIZATION_ROLE ( 'design_supplier' ) ;
#32 = FACE_OUTER_BOUND ( 'NONE', #216, .T. ) ;
#33 = PERSON_AND_ORGANIZATION ( #178, #136 ) ;
#34 = DIRECTION ( 'NONE',  ( 0.000000000000000000, 0.000000000000000000, 1.000000000000000000 ) ) ;
#35 = CALENDAR_DATE ( 2023, 13, 2 ) ;
#36 = DIRECTION ( 'NONE',  ( 1.000000000000000000, 0.000000000000000000, 0.000000000000000000 ) ) ;
#37 = DIRECTION ( 'NONE',  ( 0.000000000000000000, 0.000000000000000000, 1.000000000000000000 ) ) ;
#38 = DIRECTION ( 'NONE',  ( 1.000000000000000000, 0.000000000000000000, 0.000000000000000000 ) ) ;
#39 = LOCAL_TIME ( 18, 14, 23.00000000000000000, #158 ) ;
#40 = EDGE_LOOP ( 'NONE', ( #62, #109, #207, #236 ) ) ;
#41 = FACE_OUTER_BOUND ( 'NONE', #24, .T. ) ;
#42 = DATE_AND_TIME ( #15, #243 ) ;
#43 = DATE_AND_TIME ( #35, #81 ) ;
#44 = APPROVAL_DATE_TIME ( #42, #85 ) ;
#45 = CIRCLE ( 'NONE', #183, 2.000000000000000000 ) ;
#46 = ADVANCED_FACE ( 'NONE', ( #41 ), #56, .T. ) ;
#47 = MECHANICAL_CONTEXT ( 'NONE', #225, 'mechanical' ) ;
#48 = DIRECTION ( 'NONE',  ( -0.000000000000000000, -0.000000000000000000, -1.000000000000000000 ) ) ;
#49 = ORIENTED_EDGE ( 'NONE', *, *, #13, .F. ) ;
#50 = CARTESIAN_POINT ( 'NONE',  ( 2.000000000000000000, 2.449293598294706414E-16, 2.000000000000000000 ) ) ;
#51 = ADVANCED_FACE ( 'NONE', ( #91 ), #111, .T. ) ;
#52 = PLANE ( 'NONE',  #10 ) ;
#53 = DIRECTION ( 'NONE',  ( 0.000000000000000000, 0.000000000000000000, 1.000000000000000000 ) ) ;
#54 = DATE_AND_TIME ( #250, #39 ) ;
#55 = APPLICATION_PROTOCOL_DEFINITION ( 'international standard', 'config_control_design', 1994, #225 ) ;
#56 = PLANE ( 'NONE',  #215 ) ;
#57 = CYLINDRICAL_SURFACE ( 'NONE', #189, 2.000000000000000000 ) ;
#58 = ORIENTED_EDGE ( 'NONE', *, *, #149, .F. ) ;
#59 = FACE_OUTER_BOUND ( 'NONE', #181, .T. ) ;
#60 = ORIENTED_EDGE ( 'NONE', *, *, #214, .F. ) ;
#61 =( NAMED_UNIT ( * ) SI_UNIT ( $, .STERADIAN. ) SOLID_ANGLE_UNIT ( ) );
#62 = ORIENTED_EDGE ( 'NONE', *, *, #63, .F. ) ;
#63 = EDGE_CURVE ( 'NONE', #155, #160, #253, .T. ) ;
#64 = AXIS2_PLACEMENT_3D ( 'NONE', #117, #187, #6 ) ;
#65 = ADVANCED_BREP_SHAPE_REPRESENTATION ( 'c45b', ( #231, #234 ), #141 ) ;
#66 = VERTEX_POINT ( 'NONE', #173 ) ;
#67 = PERSON_AND_ORGANIZATION_ROLE ( 'creator' ) ;
#68 = APPROVAL_STATUS ( 'not_yet_approved' ) ;
#69 = APPROVAL_PERSON_ORGANIZATION ( #167, #85, #147 ) ;
#70 = DIRECTION ( 'NONE',  ( 1.000000000000000000, 0.000000000000000000, 0.000000000000000000 ) ) ;
#71 = ADVANCED_FACE ( 'NONE', ( #99, #32 ), #213, .T. ) ;
#72 = CIRCLE ( 'NONE', #203, 1.000000000000000000 ) ;
#73 = CARTESIAN_POINT ( 'NONE',  ( 2.000000000000000000, 2.449293598294706414E-16, 0.000000000000000000 ) ) ;
#74 = LOCAL_TIME ( 18, 14, 23.00000000000000000, #115 ) ;
#75 = DIRECTION ( 'NONE',  ( 1.000000000000000000, 0.000000000000000000, 0.000000000000000000 ) ) ;
#76 = PRODUCT ( 'c45b', 'c45b', '', ( #47 ) ) ;
#77 = VERTEX_POINT ( 'NONE', #73 ) ;
#78 = CC_DESIGN_PERSON_AND_ORGANIZATION_ASSIGNMENT ( #226, #31, ( #165 ) ) ;
#79 = PERSON_AND_ORGANIZATION ( #178, #136 ) ;
#80 = DIRECTION ( 'NONE',  ( 1.000000000000000000, 0.000000000000000000, 0.000000000000000000 ) ) ;
#81 = LOCAL_TIME ( 18, 14, 23.00000000000000000, #124 ) ;
#82 = CALENDAR_DATE ( 2023, 13, 2 ) ;
#83 = CARTESIAN_POINT ( 'NONE',  ( 0.000000000000000000, 0.000000000000000000, 2.000000000000000000 ) ) ;
#84 = PERSON_AND_ORGANIZATION_ROLE ( 'classification_officer' ) ;
#85 = APPROVAL ( #17, 'NEURÈENÝ' ) ;
#86 = DIRECTION ( 'NONE',  ( -1.000000000000000000, 0.000000000000000000, 0.000000000000000000 ) ) ;
#87 = ORIENTED_EDGE ( 'NONE', *, *, #110, .T. ) ;
#88 = AXIS2_PLACEMENT_3D ( 'NONE', #219, #197, #164 ) ;
#89 = VECTOR ( 'NONE', #25, 1000.000000000000000 ) ;
#90 = CARTESIAN_POINT ( 'NONE',  ( -2.000000000000000000, 0.000000000000000000, 2.000000000000000000 ) ) ;
#91 = FACE_OUTER_BOUND ( 'NONE', #172, .T. ) ;
#92 = PRODUCT_DEFINITION ( 'NEZNÁMÝ', '', #165, #95 ) ;
#93 = PERSON_AND_ORGANIZATION_ROLE ( 'design_owner' ) ;
#94 = CC_DESIGN_APPROVAL ( #2, ( #16 ) ) ;
#95 = DESIGN_CONTEXT ( 'detailed design', #205, 'design' ) ;
#96 = PRODUCT_RELATED_PRODUCT_CATEGORY ( 'detail', '', ( #76 ) ) ;
#97 = VECTOR ( 'NONE', #153, 1000.000000000000000 ) ;
#98 = EDGE_CURVE ( 'NONE', #160, #155, #20, .T. ) ;
#99 = FACE_BOUND ( 'NONE', #128, .T. ) ;
#100 = LINE ( 'NONE', #244, #97 ) ;
#101 = ORIENTED_EDGE ( 'NONE', *, *, #186, .T. ) ;
#102 = AXIS2_PLACEMENT_3D ( 'NONE', #232, #53, #5 ) ;
#103 = APPROVAL_STATUS ( 'not_yet_approved' ) ;
#104 = EDGE_CURVE ( 'NONE', #235, #212, #105, .T. ) ;
#105 = CIRCLE ( 'NONE', #148, 2.000000000000000000 ) ;
#106 = CARTESIAN_POINT ( 'NONE',  ( 0.000000000000000000, 0.000000000000000000, 0.000000000000000000 ) ) ;
#107 = ADVANCED_FACE ( 'NONE', ( #245 ), #52, .F. ) ;
#108 = DIRECTION ( 'NONE',  ( 0.000000000000000000, 0.000000000000000000, 1.000000000000000000 ) ) ;
#109 = ORIENTED_EDGE ( 'NONE', *, *, #214, .T. ) ;
#110 = EDGE_CURVE ( 'NONE', #160, #233, #190, .T. ) ;
#111 = CYLINDRICAL_SURFACE ( 'NONE', #154, 1.000000000000000000 ) ;
#112 = AXIS2_PLACEMENT_3D ( 'NONE', #194, #210, #9 ) ;
#113 = CALENDAR_DATE ( 2023, 13, 2 ) ;
#114 = VECTOR ( 'NONE', #48, 1000.000000000000000 ) ;
#115 = COORDINATED_UNIVERSAL_TIME_OFFSET ( 1, 0, .AHEAD. ) ;
#116 = EDGE_CURVE ( 'NONE', #66, #233, #175, .T. ) ;
#117 = CARTESIAN_POINT ( 'NONE',  ( 0.000000000000000000, 0.000000000000000000, 0.000000000000000000 ) ) ;
#118 = ORIENTED_EDGE ( 'NONE', *, *, #116, .F. ) ;
#119 = DATE_TIME_ROLE ( 'creation_date' ) ;
#120 = CC_DESIGN_DATE_AND_TIME_ASSIGNMENT ( #222, #119, ( #92 ) ) ;
#121 = APPROVAL_DATE_TIME ( #29, #240 ) ;
#122 = CARTESIAN_POINT ( 'NONE',  ( 0.000000000000000000, 0.000000000000000000, 2.000000000000000000 ) ) ;
#123 = CARTESIAN_POINT ( 'NONE',  ( 0.000000000000000000, 0.000000000000000000, 2.000000000000000000 ) ) ;
#124 = COORDINATED_UNIVERSAL_TIME_OFFSET ( 1, 0, .AHEAD. ) ;
#125 = DIRECTION ( 'NONE',  ( -0.000000000000000000, -0.000000000000000000, -1.000000000000000000 ) ) ;
#126 = CARTESIAN_POINT ( 'NONE',  ( 0.000000000000000000, 0.000000000000000000, 200.0000000000000000 ) ) ;
#127 = EDGE_CURVE ( 'NONE', #212, #235, #174, .T. ) ;
#128 = EDGE_LOOP ( 'NONE', ( #49, #118 ) ) ;
#129 = APPLICATION_PROTOCOL_DEFINITION ( 'international standard', 'config_control_design', 1994, #205 ) ;
#130 = AXIS2_PLACEMENT_3D ( 'NONE', #122, #30, #192 ) ;
#131 = LINE ( 'NONE', #227, #114 ) ;
#132 = ORIENTED_EDGE ( 'NONE', *, *, #127, .T. ) ;
#133 = PERSON_AND_ORGANIZATION ( #178, #136 ) ;
#134 = LINE ( 'NONE', #208, #89 ) ;
#135 = EDGE_LOOP ( 'NONE', ( #188, #142 ) ) ;
#136 = ORGANIZATION ( 'NEURÈENÝ', 'NEURÈENÝ', '' ) ;
#137 = PERSON_AND_ORGANIZATION_ROLE ( 'creator' ) ;
#138 = ORIENTED_EDGE ( 'NONE', *, *, #13, .T. ) ;
#139 = DIRECTION ( 'NONE',  ( 1.000000000000000000, 0.000000000000000000, 0.000000000000000000 ) ) ;
#140 = DATE_TIME_ROLE ( 'classification_date' ) ;
#141 =( GEOMETRIC_REPRESENTATION_CONTEXT ( 3 ) GLOBAL_UNCERTAINTY_ASSIGNED_CONTEXT ( ( #14 ) ) GLOBAL_UNIT_ASSIGNED_CONTEXT ( ( #237, #146, #61 ) ) REPRESENTATION_CONTEXT ( 'NONE', 'WORKASPACE' ) );
#142 = ORIENTED_EDGE ( 'NONE', *, *, #186, .F. ) ;
#143 = DIRECTION ( 'NONE',  ( -1.000000000000000000, 0.000000000000000000, 0.000000000000000000 ) ) ;
#144 = CARTESIAN_POINT ( 'NONE',  ( 0.000000000000000000, 0.000000000000000000, 2.000000000000000000 ) ) ;
#145 = FACE_OUTER_BOUND ( 'NONE', #40, .T. ) ;
#146 =( NAMED_UNIT ( * ) PLANE_ANGLE_UNIT ( ) SI_UNIT ( $, .RADIAN. ) );
#147 = APPROVAL_ROLE ( '' ) ;
#148 = AXIS2_PLACEMENT_3D ( 'NONE', #247, #169, #80 ) ;
#149 = EDGE_CURVE ( 'NONE', #212, #77, #131, .T. ) ;
#150 = COORDINATED_UNIVERSAL_TIME_OFFSET ( 1, 0, .AHEAD. ) ;
#151 = DIRECTION ( 'NONE',  ( 0.000000000000000000, 0.000000000000000000, 1.000000000000000000 ) ) ;
#152 = ORIENTED_EDGE ( 'NONE', *, *, #241, .T. ) ;
#153 = DIRECTION ( 'NONE',  ( -0.000000000000000000, -0.000000000000000000, -1.000000000000000000 ) ) ;
#154 = AXIS2_PLACEMENT_3D ( 'NONE', #182, #162, #86 ) ;
#155 = VERTEX_POINT ( 'NONE', #206 ) ;
#156 = DIRECTION ( 'NONE',  ( 0.000000000000000000, 0.000000000000000000, 1.000000000000000000 ) ) ;
#157 = ORIENTED_EDGE ( 'NONE', *, *, #63, .T. ) ;
#158 = COORDINATED_UNIVERSAL_TIME_OFFSET ( 1, 0, .AHEAD. ) ;
#159 = CARTESIAN_POINT ( 'NONE',  ( 0.000000000000000000, 0.000000000000000000, 200.0000000000000000 ) ) ;
#160 = VERTEX_POINT ( 'NONE', #23 ) ;
#161 = DIRECTION ( 'NONE',  ( -0.000000000000000000, -0.000000000000000000, -1.000000000000000000 ) ) ;
#162 = DIRECTION ( 'NONE',  ( -0.000000000000000000, -0.000000000000000000, -1.000000000000000000 ) ) ;
#163 = DIRECTION ( 'NONE',  ( -1.000000000000000000, 0.000000000000000000, 0.000000000000000000 ) ) ;
#164 = DIRECTION ( 'NONE',  ( -1.000000000000000000, 0.000000000000000000, 0.000000000000000000 ) ) ;
#165 = PRODUCT_DEFINITION_FORMATION_WITH_SPECIFIED_SOURCE ( 'LIBOVOLNÝ', '', #76, .NOT_KNOWN. ) ;
#166 = COORDINATED_UNIVERSAL_TIME_OFFSET ( 1, 0, .AHEAD. ) ;
#167 = PERSON_AND_ORGANIZATION ( #178, #136 ) ;
#168 = AXIS2_PLACEMENT_3D ( 'NONE', #123, #125, #163 ) ;
#169 = DIRECTION ( 'NONE',  ( 0.000000000000000000, 0.000000000000000000, 1.000000000000000000 ) ) ;
#170 = DIRECTION ( 'NONE',  ( -0.000000000000000000, -0.000000000000000000, -1.000000000000000000 ) ) ;
#171 = ORIENTED_EDGE ( 'NONE', *, *, #193, .F. ) ;
#172 = EDGE_LOOP ( 'NONE', ( #60, #251, #87, #138 ) ) ;
#173 = CARTESIAN_POINT ( 'NONE',  ( 1.000000000000000000, 1.224646799147353207E-16, 2.000000000000000000 ) ) ;
#174 = CIRCLE ( 'NONE', #102, 2.000000000000000000 ) ;
#175 = CIRCLE ( 'NONE', #19, 1.000000000000000000 ) ;
#176 = DIRECTION ( 'NONE',  ( 1.000000000000000000, 0.000000000000000000, -0.000000000000000000 ) ) ;
#177 = ORIENTED_EDGE ( 'NONE', *, *, #104, .T. ) ;
#178 = PERSON ( 'NEURÈENÝ', 'NEURÈENÝ', 'NEURÈENÝ', ('NEURÈENÝ'), ('NEURÈENÝ'), ('NEURÈENÝ') ) ;
#179 = DIRECTION ( 'NONE',  ( 0.000000000000000000, 0.000000000000000000, 1.000000000000000000 ) ) ;
#180 = FACE_OUTER_BOUND ( 'NONE', #28, .T. ) ;
#181 = EDGE_LOOP ( 'NONE', ( #221, #191, #101, #171 ) ) ;
#182 = CARTESIAN_POINT ( 'NONE',  ( 0.000000000000000000, 0.000000000000000000, 200.0000000000000000 ) ) ;
#183 = AXIS2_PLACEMENT_3D ( 'NONE', #218, #108, #36 ) ;
#184 = CC_DESIGN_PERSON_AND_ORGANIZATION_ASSIGNMENT ( #201, #93, ( #76 ) ) ;
#185 = APPROVAL_PERSON_ORGANIZATION ( #33, #2, #252 ) ;
#186 = EDGE_CURVE ( 'NONE', #77, #211, #3, .T. ) ;
#187 = DIRECTION ( 'NONE',  ( 0.000000000000000000, 0.000000000000000000, 1.000000000000000000 ) ) ;
#188 = ORIENTED_EDGE ( 'NONE', *, *, #241, .F. ) ;
#189 = AXIS2_PLACEMENT_3D ( 'NONE', #12, #161, #143 ) ;
#190 = LINE ( 'NONE', #249, #26 ) ;
#191 = ORIENTED_EDGE ( 'NONE', *, *, #149, .T. ) ;
#192 = DIRECTION ( 'NONE',  ( 1.000000000000000000, 0.000000000000000000, -0.000000000000000000 ) ) ;
#193 = EDGE_CURVE ( 'NONE', #235, #211, #100, .T. ) ;
#194 = CARTESIAN_POINT ( 'NONE',  ( 0.000000000000000000, 0.000000000000000000, 200.0000000000000000 ) ) ;
#195 = LOCAL_TIME ( 18, 14, 23.00000000000000000, #150 ) ;
#196 = SHAPE_DEFINITION_REPRESENTATION ( #27, #65 ) ;
#197 = DIRECTION ( 'NONE',  ( -0.000000000000000000, -0.000000000000000000, -1.000000000000000000 ) ) ;
#198 = CC_DESIGN_PERSON_AND_ORGANIZATION_ASSIGNMENT ( #200, #84, ( #16 ) ) ;
#199 = ORIENTED_EDGE ( 'NONE', *, *, #193, .T. ) ;
#200 = PERSON_AND_ORGANIZATION ( #178, #136 ) ;
#201 = PERSON_AND_ORGANIZATION ( #178, #136 ) ;
#202 = APPROVAL_DATE_TIME ( #43, #2 ) ;
#203 = AXIS2_PLACEMENT_3D ( 'NONE', #144, #37, #38 ) ;
#204 = CC_DESIGN_APPROVAL ( #85, ( #92 ) ) ;
#205 = APPLICATION_CONTEXT ( 'configuration controlled 3d designs of mechanical parts and assemblies' ) ;
#206 = CARTESIAN_POINT ( 'NONE',  ( 1.000000000000000000, 1.224646799147353207E-16, 200.0000000000000000 ) ) ;
#207 = ORIENTED_EDGE ( 'NONE', *, *, #116, .T. ) ;
#208 = CARTESIAN_POINT ( 'NONE',  ( 1.000000000000000000, 1.224646799147353207E-16, 200.0000000000000000 ) ) ;
#209 = CC_DESIGN_PERSON_AND_ORGANIZATION_ASSIGNMENT ( #239, #67, ( #92 ) ) ;
#210 = DIRECTION ( 'NONE',  ( 0.000000000000000000, 0.000000000000000000, 1.000000000000000000 ) ) ;
#211 = VERTEX_POINT ( 'NONE', #228 ) ;
#212 = VERTEX_POINT ( 'NONE', #50 ) ;
#213 = PLANE ( 'NONE',  #130 ) ;
#214 = EDGE_CURVE ( 'NONE', #155, #66, #134, .T. ) ;
#215 = AXIS2_PLACEMENT_3D ( 'NONE', #126, #179, #254 ) ;
#216 = EDGE_LOOP ( 'NONE', ( #177, #132 ) ) ;
#217 = CYLINDRICAL_SURFACE ( 'NONE', #168, 2.000000000000000000 ) ;
#218 = CARTESIAN_POINT ( 'NONE',  ( 0.000000000000000000, 0.000000000000000000, 0.000000000000000000 ) ) ;
#219 = CARTESIAN_POINT ( 'NONE',  ( 0.000000000000000000, 0.000000000000000000, 200.0000000000000000 ) ) ;
#220 = CC_DESIGN_SECURITY_CLASSIFICATION ( #16, ( #165 ) ) ;
#221 = ORIENTED_EDGE ( 'NONE', *, *, #127, .F. ) ;
#222 = DATE_AND_TIME ( #113, #74 ) ;
#223 = CC_DESIGN_APPROVAL ( #240, ( #165 ) ) ;
#224 = DIRECTION ( 'NONE',  ( 0.000000000000000000, 0.000000000000000000, 1.000000000000000000 ) ) ;
#225 = APPLICATION_CONTEXT ( 'configuration controlled 3d designs of mechanical parts and assemblies' ) ;
#226 = PERSON_AND_ORGANIZATION ( #178, #136 ) ;
#227 = CARTESIAN_POINT ( 'NONE',  ( 2.000000000000000000, 2.449293598294706414E-16, 2.000000000000000000 ) ) ;
#228 = CARTESIAN_POINT ( 'NONE',  ( -2.000000000000000000, 0.000000000000000000, 0.000000000000000000 ) ) ;
#229 = ADVANCED_FACE ( 'NONE', ( #180 ), #217, .T. ) ;
#230 = CLOSED_SHELL ( 'NONE', ( #1, #255, #229, #71, #107, #51, #46 ) ) ;
#231 = MANIFOLD_SOLID_BREP ( 'Pøidat vysunutím3', #230 ) ;
#232 = CARTESIAN_POINT ( 'NONE',  ( 0.000000000000000000, 0.000000000000000000, 2.000000000000000000 ) ) ;
#233 = VERTEX_POINT ( 'NONE', #11 ) ;
#234 = AXIS2_PLACEMENT_3D ( 'NONE', #4, #224, #70 ) ;
#235 = VERTEX_POINT ( 'NONE', #90 ) ;
#236 = ORIENTED_EDGE ( 'NONE', *, *, #110, .F. ) ;
#237 =( LENGTH_UNIT ( ) NAMED_UNIT ( * ) SI_UNIT ( .MILLI., .METRE. ) );
#238 = CYLINDRICAL_SURFACE ( 'NONE', #88, 1.000000000000000000 ) ;
#239 = PERSON_AND_ORGANIZATION ( #178, #136 ) ;
#240 = APPROVAL ( #103, 'NEURÈENÝ' ) ;
#241 = EDGE_CURVE ( 'NONE', #211, #77, #45, .T. ) ;
#242 = APPROVAL_ROLE ( '' ) ;
#243 = LOCAL_TIME ( 18, 14, 23.00000000000000000, #166 ) ;
#244 = CARTESIAN_POINT ( 'NONE',  ( -2.000000000000000000, 0.000000000000000000, 2.000000000000000000 ) ) ;
#245 = FACE_OUTER_BOUND ( 'NONE', #135, .T. ) ;
#246 = ORIENTED_EDGE ( 'NONE', *, *, #104, .F. ) ;
#247 = CARTESIAN_POINT ( 'NONE',  ( 0.000000000000000000, 0.000000000000000000, 2.000000000000000000 ) ) ;
#248 = AXIS2_PLACEMENT_3D ( 'NONE', #159, #34, #139 ) ;
#249 = CARTESIAN_POINT ( 'NONE',  ( -1.000000000000000000, 0.000000000000000000, 200.0000000000000000 ) ) ;
#250 = CALENDAR_DATE ( 2023, 13, 2 ) ;
#251 = ORIENTED_EDGE ( 'NONE', *, *, #98, .F. ) ;
#252 = APPROVAL_ROLE ( '' ) ;
#253 = CIRCLE ( 'NONE', #248, 1.000000000000000000 ) ;
#254 = DIRECTION ( 'NONE',  ( 1.000000000000000000, 0.000000000000000000, -0.000000000000000000 ) ) ;
#255 = ADVANCED_FACE ( 'NONE', ( #59 ), #57, .T. ) ;
ENDSEC;
END-ISO-10303-21;
