ISO-10303-21;
HEADER;
FILE_DESCRIPTION (( 'STEP AP203' ),
    '1' );
FILE_NAME ('e7a2.STEP',
    '2023-02-13T14:19:21',
    ( '' ),
    ( '' ),
    'SwSTEP 2.0',
    'SolidWorks 2019',
    '' );
FILE_SCHEMA (( 'CONFIG_CONTROL_DESIGN' ));
ENDSEC;

DATA;
#1 = EDGE_CURVE ( 'NONE', #148, #62, #194, .T. ) ;
#2 = DIRECTION ( 'NONE',  ( 1.000000000000000000, 0.000000000000000000, -0.000000000000000000 ) ) ;
#3 = AXIS2_PLACEMENT_3D ( 'NONE', #162, #16, #189 ) ;
#4 = APPROVAL_STATUS ( 'not_yet_approved' ) ;
#5 = AXIS2_PLACEMENT_3D ( 'NONE', #192, #71, #93 ) ;
#6 = DATE_TIME_ROLE ( 'creation_date' ) ;
#7 = PRODUCT_DEFINITION ( 'NEZNÁMÝ', '', #64, #231 ) ;
#8 = DIRECTION ( 'NONE',  ( -0.000000000000000000, -0.000000000000000000, -1.000000000000000000 ) ) ;
#9 = AXIS2_PLACEMENT_3D ( 'NONE', #249, #72, #191 ) ;
#10 = COORDINATED_UNIVERSAL_TIME_OFFSET ( 1, 0, .AHEAD. ) ;
#11 = FACE_OUTER_BOUND ( 'NONE', #216, .T. ) ;
#12 = ORIENTED_EDGE ( 'NONE', *, *, #43, .T. ) ;
#13 = LOCAL_TIME ( 15, 19, 21.00000000000000000, #65 ) ;
#14 = CC_DESIGN_SECURITY_CLASSIFICATION ( #187, ( #64 ) ) ;
#15 = LINE ( 'NONE', #114, #39 ) ;
#16 = DIRECTION ( 'NONE',  ( 0.000000000000000000, 0.000000000000000000, 1.000000000000000000 ) ) ;
#17 = DIRECTION ( 'NONE',  ( -0.000000000000000000, -0.000000000000000000, -1.000000000000000000 ) ) ;
#18 = CARTESIAN_POINT ( 'NONE',  ( 0.000000000000000000, 0.000000000000000000, 6.500000000000000000 ) ) ;
#19 = DIRECTION ( 'NONE',  ( 0.000000000000000000, 0.000000000000000000, 1.000000000000000000 ) ) ;
#20 = CC_DESIGN_APPROVAL ( #58, ( #187 ) ) ;
#21 = AXIS2_PLACEMENT_3D ( 'NONE', #113, #250, #47 ) ;
#22 = DIRECTION ( 'NONE',  ( 0.000000000000000000, 0.000000000000000000, 1.000000000000000000 ) ) ;
#23 = VERTEX_POINT ( 'NONE', #115 ) ;
#24 = ORIENTED_EDGE ( 'NONE', *, *, #227, .F. ) ;
#25 = APPROVAL_PERSON_ORGANIZATION ( #135, #58, #248 ) ;
#26 = ORIENTED_EDGE ( 'NONE', *, *, #145, .F. ) ;
#27 = PERSON_AND_ORGANIZATION_ROLE ( 'creator' ) ;
#28 = CARTESIAN_POINT ( 'NONE',  ( 0.000000000000000000, 0.000000000000000000, 0.000000000000000000 ) ) ;
#29 = AXIS2_PLACEMENT_3D ( 'NONE', #238, #209, #33 ) ;
#30 = COORDINATED_UNIVERSAL_TIME_OFFSET ( 1, 0, .AHEAD. ) ;
#31 = EDGE_CURVE ( 'NONE', #76, #23, #193, .T. ) ;
#32 = EDGE_LOOP ( 'NONE', ( #144, #252 ) ) ;
#33 = DIRECTION ( 'NONE',  ( 1.000000000000000000, 0.000000000000000000, 0.000000000000000000 ) ) ;
#34 = EDGE_CURVE ( 'NONE', #74, #148, #94, .T. ) ;
#35 = VECTOR ( 'NONE', #17, 1000.000000000000000 ) ;
#36 = ORIENTED_EDGE ( 'NONE', *, *, #215, .T. ) ;
#37 = CARTESIAN_POINT ( 'NONE',  ( 4.000000000000000000, 4.898587196589412829E-16, 6.500000000000000000 ) ) ;
#38 = CARTESIAN_POINT ( 'NONE',  ( -7.000000000000000000, 0.000000000000000000, 6.500000000000000000 ) ) ;
#39 = VECTOR ( 'NONE', #87, 1000.000000000000000 ) ;
#40 = MECHANICAL_CONTEXT ( 'NONE', #168, 'mechanical' ) ;
#41 = ORIENTED_EDGE ( 'NONE', *, *, #34, .F. ) ;
#42 = ORIENTED_EDGE ( 'NONE', *, *, #206, .T. ) ;
#43 = EDGE_CURVE ( 'NONE', #74, #180, #134, .T. ) ;
#44 = LOCAL_TIME ( 15, 19, 21.00000000000000000, #10 ) ;
#45 = AXIS2_PLACEMENT_3D ( 'NONE', #28, #103, #2 ) ;
#46 = APPLICATION_CONTEXT ( 'configuration controlled 3d designs of mechanical parts and assemblies' ) ;
#47 = DIRECTION ( 'NONE',  ( 1.000000000000000000, 0.000000000000000000, 0.000000000000000000 ) ) ;
#48 = CC_DESIGN_APPROVAL ( #126, ( #7 ) ) ;
#49 = DATE_AND_TIME ( #50, #13 ) ;
#50 = CALENDAR_DATE ( 2023, 13, 2 ) ;
#51 = CIRCLE ( 'NONE', #3, 4.000000000000000000 ) ;
#52 = CC_DESIGN_PERSON_AND_ORGANIZATION_ASSIGNMENT ( #222, #204, ( #254 ) ) ;
#53 = PLANE ( 'NONE',  #129 ) ;
#54 = DIRECTION ( 'NONE',  ( -0.000000000000000000, -0.000000000000000000, -1.000000000000000000 ) ) ;
#55 = APPROVAL_STATUS ( 'not_yet_approved' ) ;
#56 = DIRECTION ( 'NONE',  ( -1.000000000000000000, 0.000000000000000000, 0.000000000000000000 ) ) ;
#57 = FACE_BOUND ( 'NONE', #241, .T. ) ;
#58 = APPROVAL ( #55, 'NEURÈENÝ' ) ;
#59 = VERTEX_POINT ( 'NONE', #212 ) ;
#60 = AXIS2_PLACEMENT_3D ( 'NONE', #96, #75, #120 ) ;
#61 = CIRCLE ( 'NONE', #5, 7.000000000000000000 ) ;
#62 = VERTEX_POINT ( 'NONE', #37 ) ;
#63 = CC_DESIGN_DATE_AND_TIME_ASSIGNMENT ( #176, #132, ( #187 ) ) ;
#64 = PRODUCT_DEFINITION_FORMATION_WITH_SPECIFIED_SOURCE ( 'LIBOVOLNÝ', '', #254, .NOT_KNOWN. ) ;
#65 = COORDINATED_UNIVERSAL_TIME_OFFSET ( 1, 0, .AHEAD. ) ;
#66 = AXIS2_PLACEMENT_3D ( 'NONE', #18, #92, #85 ) ;
#67 = APPROVAL_DATE_TIME ( #49, #126 ) ;
#68 = CARTESIAN_POINT ( 'NONE',  ( 0.000000000000000000, 0.000000000000000000, 6.500000000000000000 ) ) ;
#69 = EDGE_CURVE ( 'NONE', #76, #218, #203, .T. ) ;
#70 = COORDINATED_UNIVERSAL_TIME_OFFSET ( 1, 0, .AHEAD. ) ;
#71 = DIRECTION ( 'NONE',  ( 0.000000000000000000, 0.000000000000000000, 1.000000000000000000 ) ) ;
#72 = DIRECTION ( 'NONE',  ( -0.000000000000000000, -0.000000000000000000, -1.000000000000000000 ) ) ;
#73 = CARTESIAN_POINT ( 'NONE',  ( 0.000000000000000000, 0.000000000000000000, 6.500000000000000000 ) ) ;
#74 = VERTEX_POINT ( 'NONE', #102 ) ;
#75 = DIRECTION ( 'NONE',  ( 0.000000000000000000, 0.000000000000000000, 1.000000000000000000 ) ) ;
#76 = VERTEX_POINT ( 'NONE', #164 ) ;
#77 = CC_DESIGN_PERSON_AND_ORGANIZATION_ASSIGNMENT ( #243, #233, ( #187 ) ) ;
#78 = EDGE_LOOP ( 'NONE', ( #146, #255 ) ) ;
#79 = CALENDAR_DATE ( 2023, 13, 2 ) ;
#80 = CYLINDRICAL_SURFACE ( 'NONE', #228, 7.000000000000000000 ) ;
#81 = DIRECTION ( 'NONE',  ( -1.000000000000000000, 0.000000000000000000, 0.000000000000000000 ) ) ;
#82 = PRODUCT_RELATED_PRODUCT_CATEGORY ( 'detail', '', ( #254 ) ) ;
#83 = CARTESIAN_POINT ( 'NONE',  ( 0.000000000000000000, 0.000000000000000000, 6.500000000000000000 ) ) ;
#84 = EDGE_CURVE ( 'NONE', #23, #59, #235, .T. ) ;
#85 = DIRECTION ( 'NONE',  ( 1.000000000000000000, 0.000000000000000000, 0.000000000000000000 ) ) ;
#86 = EDGE_LOOP ( 'NONE', ( #239, #240, #253, #118 ) ) ;
#87 = DIRECTION ( 'NONE',  ( -0.000000000000000000, -0.000000000000000000, -1.000000000000000000 ) ) ;
#88 = ORIENTED_EDGE ( 'NONE', *, *, #84, .F. ) ;
#89 = CALENDAR_DATE ( 2023, 13, 2 ) ;
#90 = DIRECTION ( 'NONE',  ( 0.000000000000000000, 0.000000000000000000, 1.000000000000000000 ) ) ;
#91 = CARTESIAN_POINT ( 'NONE',  ( 0.000000000000000000, 0.000000000000000000, 250.0000000000000000 ) ) ;
#92 = DIRECTION ( 'NONE',  ( 0.000000000000000000, 0.000000000000000000, 1.000000000000000000 ) ) ;
#93 = DIRECTION ( 'NONE',  ( 1.000000000000000000, 0.000000000000000000, 0.000000000000000000 ) ) ;
#94 = CIRCLE ( 'NONE', #130, 4.000000000000000000 ) ;
#95 = EDGE_LOOP ( 'NONE', ( #88, #26 ) ) ;
#96 = CARTESIAN_POINT ( 'NONE',  ( 0.000000000000000000, 0.000000000000000000, 0.000000000000000000 ) ) ;
#97 = EDGE_LOOP ( 'NONE', ( #119, #41, #12, #36 ) ) ;
#98 = ADVANCED_FACE ( 'NONE', ( #221 ), #122, .F. ) ;
#99 = DIRECTION ( 'NONE',  ( 0.000000000000000000, 0.000000000000000000, 1.000000000000000000 ) ) ;
#100 = ORIENTED_EDGE ( 'NONE', *, *, #69, .F. ) ;
#101 = CARTESIAN_POINT ( 'NONE',  ( 0.000000000000000000, 0.000000000000000000, 0.000000000000000000 ) ) ;
#102 = CARTESIAN_POINT ( 'NONE',  ( -4.000000000000000000, 0.000000000000000000, 250.0000000000000000 ) ) ;
#103 = DIRECTION ( 'NONE',  ( 0.000000000000000000, 0.000000000000000000, 1.000000000000000000 ) ) ;
#104 = APPROVAL ( #171, 'NEURÈENÝ' ) ;
#105 = PERSON_AND_ORGANIZATION ( #190, #205 ) ;
#106 =( GEOMETRIC_REPRESENTATION_CONTEXT ( 3 ) GLOBAL_UNCERTAINTY_ASSIGNED_CONTEXT ( ( #141 ) ) GLOBAL_UNIT_ASSIGNED_CONTEXT ( ( #172, #234, #196 ) ) REPRESENTATION_CONTEXT ( 'NONE', 'WORKASPACE' ) );
#107 = CARTESIAN_POINT ( 'NONE',  ( 4.000000000000000000, 4.898587196589412829E-16, 250.0000000000000000 ) ) ;
#108 = ORIENTED_EDGE ( 'NONE', *, *, #206, .F. ) ;
#109 = CYLINDRICAL_SURFACE ( 'NONE', #9, 4.000000000000000000 ) ;
#110 = DIRECTION ( 'NONE',  ( -0.000000000000000000, -0.000000000000000000, -1.000000000000000000 ) ) ;
#111 = ORIENTED_EDGE ( 'NONE', *, *, #197, .F. ) ;
#112 = DIRECTION ( 'NONE',  ( 1.000000000000000000, 0.000000000000000000, -0.000000000000000000 ) ) ;
#113 = CARTESIAN_POINT ( 'NONE',  ( 0.000000000000000000, 0.000000000000000000, 6.500000000000000000 ) ) ;
#114 = CARTESIAN_POINT ( 'NONE',  ( 7.000000000000000000, 8.572527594031471218E-16, 6.500000000000000000 ) ) ;
#115 = CARTESIAN_POINT ( 'NONE',  ( -7.000000000000000000, 0.000000000000000000, 0.000000000000000000 ) ) ;
#116 = AXIS2_PLACEMENT_3D ( 'NONE', #68, #143, #56 ) ;
#117 = ADVANCED_FACE ( 'NONE', ( #166 ), #80, .T. ) ;
#118 = ORIENTED_EDGE ( 'NONE', *, *, #31, .F. ) ;
#119 = ORIENTED_EDGE ( 'NONE', *, *, #1, .F. ) ;
#120 = DIRECTION ( 'NONE',  ( 1.000000000000000000, 0.000000000000000000, 0.000000000000000000 ) ) ;
#121 = AXIS2_PLACEMENT_3D ( 'NONE', #101, #99, #165 ) ;
#122 = PLANE ( 'NONE',  #45 ) ;
#123 = ADVANCED_FACE ( 'NONE', ( #169 ), #138, .T. ) ;
#124 = PERSON_AND_ORGANIZATION ( #190, #205 ) ;
#125 = APPROVAL_PERSON_ORGANIZATION ( #225, #126, #245 ) ;
#126 = APPROVAL ( #4, 'NEURÈENÝ' ) ;
#127 = PERSON_AND_ORGANIZATION ( #190, #205 ) ;
#128 = APPROVAL_ROLE ( '' ) ;
#129 = AXIS2_PLACEMENT_3D ( 'NONE', #136, #237, #112 ) ;
#130 = AXIS2_PLACEMENT_3D ( 'NONE', #91, #22, #160 ) ;
#131 = CC_DESIGN_DATE_AND_TIME_ASSIGNMENT ( #151, #6, ( #7 ) ) ;
#132 = DATE_TIME_ROLE ( 'classification_date' ) ;
#133 = FACE_OUTER_BOUND ( 'NONE', #32, .T. ) ;
#134 = LINE ( 'NONE', #175, #200 ) ;
#135 = PERSON_AND_ORGANIZATION ( #190, #205 ) ;
#136 = CARTESIAN_POINT ( 'NONE',  ( 0.000000000000000000, 0.000000000000000000, 250.0000000000000000 ) ) ;
#137 = CC_DESIGN_APPROVAL ( #104, ( #64 ) ) ;
#138 = CYLINDRICAL_SURFACE ( 'NONE', #116, 7.000000000000000000 ) ;
#139 = CALENDAR_DATE ( 2023, 13, 2 ) ;
#140 = DIRECTION ( 'NONE',  ( 1.000000000000000000, 0.000000000000000000, -0.000000000000000000 ) ) ;
#141 = UNCERTAINTY_MEASURE_WITH_UNIT (LENGTH_MEASURE( 1.000000000000000082E-05 ), #172, 'distance_accuracy_value', 'NONE');
#142 = ORIENTED_EDGE ( 'NONE', *, *, #43, .F. ) ;
#143 = DIRECTION ( 'NONE',  ( -0.000000000000000000, -0.000000000000000000, -1.000000000000000000 ) ) ;
#144 = ORIENTED_EDGE ( 'NONE', *, *, #34, .T. ) ;
#145 = EDGE_CURVE ( 'NONE', #59, #23, #61, .T. ) ;
#146 = ORIENTED_EDGE ( 'NONE', *, *, #69, .T. ) ;
#147 = AXIS2_PLACEMENT_3D ( 'NONE', #161, #251, #229 ) ;
#148 = VERTEX_POINT ( 'NONE', #107 ) ;
#149 = ADVANCED_FACE ( 'NONE', ( #211 ), #156, .T. ) ;
#150 = LOCAL_TIME ( 15, 19, 21.00000000000000000, #30 ) ;
#151 = DATE_AND_TIME ( #186, #44 ) ;
#152 = ADVANCED_BREP_SHAPE_REPRESENTATION ( 'e7a2', ( #220, #60 ), #106 ) ;
#153 = APPLICATION_PROTOCOL_DEFINITION ( 'international standard', 'config_control_design', 1994, #46 ) ;
#154 = ADVANCED_FACE ( 'NONE', ( #57, #157 ), #230, .T. ) ;
#155 = CIRCLE ( 'NONE', #183, 4.000000000000000000 ) ;
#156 = CYLINDRICAL_SURFACE ( 'NONE', #147, 4.000000000000000000 ) ;
#157 = FACE_OUTER_BOUND ( 'NONE', #78, .T. ) ;
#158 = ORIENTED_EDGE ( 'NONE', *, *, #31, .T. ) ;
#159 = CC_DESIGN_PERSON_AND_ORGANIZATION_ASSIGNMENT ( #105, #185, ( #64 ) ) ;
#160 = DIRECTION ( 'NONE',  ( 1.000000000000000000, 0.000000000000000000, 0.000000000000000000 ) ) ;
#161 = CARTESIAN_POINT ( 'NONE',  ( 0.000000000000000000, 0.000000000000000000, 250.0000000000000000 ) ) ;
#162 = CARTESIAN_POINT ( 'NONE',  ( 0.000000000000000000, 0.000000000000000000, 6.500000000000000000 ) ) ;
#163 = EDGE_LOOP ( 'NONE', ( #24, #100, #158, #201 ) ) ;
#164 = CARTESIAN_POINT ( 'NONE',  ( -7.000000000000000000, 0.000000000000000000, 6.500000000000000000 ) ) ;
#165 = DIRECTION ( 'NONE',  ( 1.000000000000000000, 0.000000000000000000, 0.000000000000000000 ) ) ;
#166 = FACE_OUTER_BOUND ( 'NONE', #163, .T. ) ;
#167 = SECURITY_CLASSIFICATION_LEVEL ( 'unclassified' ) ;
#168 = APPLICATION_CONTEXT ( 'configuration controlled 3d designs of mechanical parts and assemblies' ) ;
#169 = FACE_OUTER_BOUND ( 'NONE', #86, .T. ) ;
#170 = LOCAL_TIME ( 15, 19, 21.00000000000000000, #70 ) ;
#171 = APPROVAL_STATUS ( 'not_yet_approved' ) ;
#172 =( LENGTH_UNIT ( ) NAMED_UNIT ( * ) SI_UNIT ( .MILLI., .METRE. ) );
#173 = VECTOR ( 'NONE', #110, 1000.000000000000000 ) ;
#174 = COORDINATED_UNIVERSAL_TIME_OFFSET ( 1, 0, .AHEAD. ) ;
#175 = CARTESIAN_POINT ( 'NONE',  ( -4.000000000000000000, 0.000000000000000000, 250.0000000000000000 ) ) ;
#176 = DATE_AND_TIME ( #89, #246 ) ;
#177 = CARTESIAN_POINT ( 'NONE',  ( 0.000000000000000000, 0.000000000000000000, 6.500000000000000000 ) ) ;
#178 = CARTESIAN_POINT ( 'NONE',  ( -4.000000000000000000, 0.000000000000000000, 6.500000000000000000 ) ) ;
#179 = ADVANCED_FACE ( 'NONE', ( #133 ), #53, .T. ) ;
#180 = VERTEX_POINT ( 'NONE', #178 ) ;
#181 = APPLICATION_PROTOCOL_DEFINITION ( 'international standard', 'config_control_design', 1994, #168 ) ;
#182 = PRODUCT_DEFINITION_SHAPE ( 'NONE', 'NONE',  #7 ) ;
#183 = AXIS2_PLACEMENT_3D ( 'NONE', #73, #19, #214 ) ;
#184 = CIRCLE ( 'NONE', #66, 7.000000000000000000 ) ;
#185 = PERSON_AND_ORGANIZATION_ROLE ( 'design_supplier' ) ;
#186 = CALENDAR_DATE ( 2023, 13, 2 ) ;
#187 = SECURITY_CLASSIFICATION ( '', '', #167 ) ;
#188 = DATE_AND_TIME ( #79, #150 ) ;
#189 = DIRECTION ( 'NONE',  ( 1.000000000000000000, 0.000000000000000000, 0.000000000000000000 ) ) ;
#190 = PERSON ( 'NEURÈENÝ', 'NEURÈENÝ', 'NEURÈENÝ', ('NEURÈENÝ'), ('NEURÈENÝ'), ('NEURÈENÝ') ) ;
#191 = DIRECTION ( 'NONE',  ( -1.000000000000000000, 0.000000000000000000, 0.000000000000000000 ) ) ;
#192 = CARTESIAN_POINT ( 'NONE',  ( 0.000000000000000000, 0.000000000000000000, 0.000000000000000000 ) ) ;
#193 = LINE ( 'NONE', #38, #35 ) ;
#194 = LINE ( 'NONE', #232, #173 ) ;
#195 = SHAPE_DEFINITION_REPRESENTATION ( #182, #152 ) ;
#196 =( NAMED_UNIT ( * ) SI_UNIT ( $, .STERADIAN. ) SOLID_ANGLE_UNIT ( ) );
#197 = EDGE_CURVE ( 'NONE', #148, #74, #223, .T. ) ;
#198 = APPROVAL_PERSON_ORGANIZATION ( #224, #104, #128 ) ;
#199 = ORIENTED_EDGE ( 'NONE', *, *, #215, .F. ) ;
#200 = VECTOR ( 'NONE', #54, 1000.000000000000000 ) ;
#201 = ORIENTED_EDGE ( 'NONE', *, *, #84, .T. ) ;
#202 = CC_DESIGN_PERSON_AND_ORGANIZATION_ASSIGNMENT ( #127, #207, ( #7 ) ) ;
#203 = CIRCLE ( 'NONE', #21, 7.000000000000000000 ) ;
#204 = PERSON_AND_ORGANIZATION_ROLE ( 'design_owner' ) ;
#205 = ORGANIZATION ( 'NEURÈENÝ', 'NEURÈENÝ', '' ) ;
#206 = EDGE_CURVE ( 'NONE', #62, #180, #51, .T. ) ;
#207 = PERSON_AND_ORGANIZATION_ROLE ( 'creator' ) ;
#208 = CLOSED_SHELL ( 'NONE', ( #217, #123, #117, #154, #98, #149, #179 ) ) ;
#209 = DIRECTION ( 'NONE',  ( 0.000000000000000000, 0.000000000000000000, 1.000000000000000000 ) ) ;
#210 = CARTESIAN_POINT ( 'NONE',  ( 7.000000000000000000, 8.572527594031471218E-16, 6.500000000000000000 ) ) ;
#211 = FACE_OUTER_BOUND ( 'NONE', #97, .T. ) ;
#212 = CARTESIAN_POINT ( 'NONE',  ( 7.000000000000000000, 8.572527594031471218E-16, 0.000000000000000000 ) ) ;
#213 = DATE_AND_TIME ( #139, #170 ) ;
#214 = DIRECTION ( 'NONE',  ( 1.000000000000000000, 0.000000000000000000, 0.000000000000000000 ) ) ;
#215 = EDGE_CURVE ( 'NONE', #180, #62, #155, .T. ) ;
#216 = EDGE_LOOP ( 'NONE', ( #111, #219, #42, #142 ) ) ;
#217 = ADVANCED_FACE ( 'NONE', ( #11 ), #109, .T. ) ;
#218 = VERTEX_POINT ( 'NONE', #210 ) ;
#219 = ORIENTED_EDGE ( 'NONE', *, *, #1, .T. ) ;
#220 = MANIFOLD_SOLID_BREP ( 'Pøidat vysunutím3', #208 ) ;
#221 = FACE_OUTER_BOUND ( 'NONE', #95, .T. ) ;
#222 = PERSON_AND_ORGANIZATION ( #190, #205 ) ;
#223 = CIRCLE ( 'NONE', #29, 4.000000000000000000 ) ;
#224 = PERSON_AND_ORGANIZATION ( #190, #205 ) ;
#225 = PERSON_AND_ORGANIZATION ( #190, #205 ) ;
#226 = APPROVAL_DATE_TIME ( #213, #58 ) ;
#227 = EDGE_CURVE ( 'NONE', #218, #59, #15, .T. ) ;
#228 = AXIS2_PLACEMENT_3D ( 'NONE', #83, #8, #81 ) ;
#229 = DIRECTION ( 'NONE',  ( -1.000000000000000000, 0.000000000000000000, 0.000000000000000000 ) ) ;
#230 = PLANE ( 'NONE',  #242 ) ;
#231 = DESIGN_CONTEXT ( 'detailed design', #46, 'design' ) ;
#232 = CARTESIAN_POINT ( 'NONE',  ( 4.000000000000000000, 4.898587196589412829E-16, 250.0000000000000000 ) ) ;
#233 = PERSON_AND_ORGANIZATION_ROLE ( 'classification_officer' ) ;
#234 =( NAMED_UNIT ( * ) PLANE_ANGLE_UNIT ( ) SI_UNIT ( $, .RADIAN. ) );
#235 = CIRCLE ( 'NONE', #121, 7.000000000000000000 ) ;
#236 = CC_DESIGN_PERSON_AND_ORGANIZATION_ASSIGNMENT ( #124, #27, ( #64 ) ) ;
#237 = DIRECTION ( 'NONE',  ( 0.000000000000000000, 0.000000000000000000, 1.000000000000000000 ) ) ;
#238 = CARTESIAN_POINT ( 'NONE',  ( 0.000000000000000000, 0.000000000000000000, 250.0000000000000000 ) ) ;
#239 = ORIENTED_EDGE ( 'NONE', *, *, #244, .F. ) ;
#240 = ORIENTED_EDGE ( 'NONE', *, *, #227, .T. ) ;
#241 = EDGE_LOOP ( 'NONE', ( #199, #108 ) ) ;
#242 = AXIS2_PLACEMENT_3D ( 'NONE', #177, #90, #140 ) ;
#243 = PERSON_AND_ORGANIZATION ( #190, #205 ) ;
#244 = EDGE_CURVE ( 'NONE', #218, #76, #184, .T. ) ;
#245 = APPROVAL_ROLE ( '' ) ;
#246 = LOCAL_TIME ( 15, 19, 21.00000000000000000, #174 ) ;
#247 = APPROVAL_DATE_TIME ( #188, #104 ) ;
#248 = APPROVAL_ROLE ( '' ) ;
#249 = CARTESIAN_POINT ( 'NONE',  ( 0.000000000000000000, 0.000000000000000000, 250.0000000000000000 ) ) ;
#250 = DIRECTION ( 'NONE',  ( 0.000000000000000000, 0.000000000000000000, 1.000000000000000000 ) ) ;
#251 = DIRECTION ( 'NONE',  ( -0.000000000000000000, -0.000000000000000000, -1.000000000000000000 ) ) ;
#252 = ORIENTED_EDGE ( 'NONE', *, *, #197, .T. ) ;
#253 = ORIENTED_EDGE ( 'NONE', *, *, #145, .T. ) ;
#254 = PRODUCT ( 'e7a2', 'e7a2', '', ( #40 ) ) ;
#255 = ORIENTED_EDGE ( 'NONE', *, *, #244, .T. ) ;
ENDSEC;
END-ISO-10303-21;
