ISO-10303-21;
HEADER;
FILE_DESCRIPTION (( 'STEP AP203' ),
    '1' );
FILE_NAME ('e613.STEP',
    '2023-02-13T11:31:20',
    ( '' ),
    ( '' ),
    'SwSTEP 2.0',
    'SolidWorks 2019',
    '' );
FILE_SCHEMA (( 'CONFIG_CONTROL_DESIGN' ));
ENDSEC;

DATA;
#1 = APPLICATION_CONTEXT ( 'configuration controlled 3d designs of mechanical parts and assemblies' ) ;
#2 = CARTESIAN_POINT ( 'NONE',  ( -6.000000000000000888, 0.000000000000000000, 500.0000000000000000 ) ) ;
#3 = PRODUCT_DEFINITION ( 'NEZNÁMÝ', '', #113, #246 ) ;
#4 = CARTESIAN_POINT ( 'NONE',  ( 0.000000000000000000, 0.000000000000000000, 6.500000000000000000 ) ) ;
#5 = CARTESIAN_POINT ( 'NONE',  ( 9.000000000000000000, 1.102182119232617517E-15, 6.500000000000000000 ) ) ;
#6 = ORGANIZATION ( 'NEURÈENÝ', 'NEURÈENÝ', '' ) ;
#7 = DIRECTION ( 'NONE',  ( -0.000000000000000000, -0.000000000000000000, -1.000000000000000000 ) ) ;
#8 = VERTEX_POINT ( 'NONE', #5 ) ;
#9 = CC_DESIGN_APPROVAL ( #253, ( #113 ) ) ;
#10 = DIRECTION ( 'NONE',  ( 0.000000000000000000, 0.000000000000000000, 1.000000000000000000 ) ) ;
#11 = AXIS2_PLACEMENT_3D ( 'NONE', #243, #88, #68 ) ;
#12 = ORIENTED_EDGE ( 'NONE', *, *, #127, .T. ) ;
#13 = LOCAL_TIME ( 12, 31, 20.00000000000000000, #178 ) ;
#14 = VERTEX_POINT ( 'NONE', #202 ) ;
#15 = EDGE_CURVE ( 'NONE', #251, #171, #224, .T. ) ;
#16 = PERSON_AND_ORGANIZATION ( #98, #6 ) ;
#17 = ORIENTED_EDGE ( 'NONE', *, *, #24, .T. ) ;
#18 = EDGE_LOOP ( 'NONE', ( #180, #81, #54, #103 ) ) ;
#19 = CARTESIAN_POINT ( 'NONE',  ( 0.000000000000000000, 0.000000000000000000, 500.0000000000000000 ) ) ;
#20 = EDGE_CURVE ( 'NONE', #123, #105, #58, .T. ) ;
#21 = VECTOR ( 'NONE', #173, 1000.000000000000000 ) ;
#22 = CIRCLE ( 'NONE', #204, 9.000000000000000000 ) ;
#23 = CARTESIAN_POINT ( 'NONE',  ( 6.000000000000000888, 7.347880794884120722E-16, 500.0000000000000000 ) ) ;
#24 = EDGE_CURVE ( 'NONE', #251, #8, #160, .T. ) ;
#25 = DIRECTION ( 'NONE',  ( 0.000000000000000000, 0.000000000000000000, 1.000000000000000000 ) ) ;
#26 = DIRECTION ( 'NONE',  ( 0.000000000000000000, 0.000000000000000000, 1.000000000000000000 ) ) ;
#27 =( NAMED_UNIT ( * ) PLANE_ANGLE_UNIT ( ) SI_UNIT ( $, .RADIAN. ) );
#28 = PRODUCT_RELATED_PRODUCT_CATEGORY ( 'detail', '', ( #232 ) ) ;
#29 = DIRECTION ( 'NONE',  ( 0.000000000000000000, 0.000000000000000000, 1.000000000000000000 ) ) ;
#30 = CARTESIAN_POINT ( 'NONE',  ( -9.000000000000000000, 0.000000000000000000, 0.000000000000000000 ) ) ;
#31 = APPROVAL_STATUS ( 'not_yet_approved' ) ;
#32 = APPROVAL_ROLE ( '' ) ;
#33 = LOCAL_TIME ( 12, 31, 20.00000000000000000, #159 ) ;
#34 = CC_DESIGN_PERSON_AND_ORGANIZATION_ASSIGNMENT ( #193, #59, ( #113 ) ) ;
#35 = CALENDAR_DATE ( 2023, 13, 2 ) ;
#36 = CALENDAR_DATE ( 2023, 13, 2 ) ;
#37 = CIRCLE ( 'NONE', #11, 6.000000000000000888 ) ;
#38 = CALENDAR_DATE ( 2023, 13, 2 ) ;
#39 = DIRECTION ( 'NONE',  ( 0.000000000000000000, 0.000000000000000000, 1.000000000000000000 ) ) ;
#40 = ORIENTED_EDGE ( 'NONE', *, *, #240, .F. ) ;
#41 = APPROVAL_DATE_TIME ( #199, #52 ) ;
#42 = FACE_OUTER_BOUND ( 'NONE', #90, .T. ) ;
#43 = DIRECTION ( 'NONE',  ( 0.000000000000000000, 0.000000000000000000, 1.000000000000000000 ) ) ;
#44 = ADVANCED_FACE ( 'NONE', ( #42 ), #92, .T. ) ;
#45 = APPROVAL_PERSON_ORGANIZATION ( #16, #52, #102 ) ;
#46 = CC_DESIGN_APPROVAL ( #111, ( #3 ) ) ;
#47 = CARTESIAN_POINT ( 'NONE',  ( 0.000000000000000000, 0.000000000000000000, 6.500000000000000000 ) ) ;
#48 = DIRECTION ( 'NONE',  ( 0.000000000000000000, 0.000000000000000000, 1.000000000000000000 ) ) ;
#49 = DIRECTION ( 'NONE',  ( 1.000000000000000000, 0.000000000000000000, 0.000000000000000000 ) ) ;
#50 = CARTESIAN_POINT ( 'NONE',  ( 0.000000000000000000, 0.000000000000000000, 6.500000000000000000 ) ) ;
#51 = AXIS2_PLACEMENT_3D ( 'NONE', #65, #25, #185 ) ;
#52 = APPROVAL ( #235, 'NEURÈENÝ' ) ;
#53 = DIRECTION ( 'NONE',  ( -1.000000000000000000, 0.000000000000000000, 0.000000000000000000 ) ) ;
#54 = ORIENTED_EDGE ( 'NONE', *, *, #240, .T. ) ;
#55 = PERSON_AND_ORGANIZATION ( #98, #6 ) ;
#56 = UNCERTAINTY_MEASURE_WITH_UNIT (LENGTH_MEASURE( 1.000000000000000082E-05 ), #95, 'distance_accuracy_value', 'NONE');
#57 = CARTESIAN_POINT ( 'NONE',  ( 0.000000000000000000, 0.000000000000000000, 0.000000000000000000 ) ) ;
#58 = CIRCLE ( 'NONE', #130, 6.000000000000000888 ) ;
#59 = PERSON_AND_ORGANIZATION_ROLE ( 'design_supplier' ) ;
#60 = APPLICATION_CONTEXT ( 'configuration controlled 3d designs of mechanical parts and assemblies' ) ;
#61 = DIRECTION ( 'NONE',  ( -0.000000000000000000, -0.000000000000000000, -1.000000000000000000 ) ) ;
#62 = AXIS2_PLACEMENT_3D ( 'NONE', #152, #48, #134 ) ;
#63 = FACE_OUTER_BOUND ( 'NONE', #198, .T. ) ;
#64 = CLOSED_SHELL ( 'NONE', ( #165, #84, #44, #125, #250, #168, #182 ) ) ;
#65 = CARTESIAN_POINT ( 'NONE',  ( 0.000000000000000000, 0.000000000000000000, 6.500000000000000000 ) ) ;
#66 = ORIENTED_EDGE ( 'NONE', *, *, #94, .F. ) ;
#67 = CC_DESIGN_SECURITY_CLASSIFICATION ( #161, ( #113 ) ) ;
#68 = DIRECTION ( 'NONE',  ( 1.000000000000000000, 0.000000000000000000, 0.000000000000000000 ) ) ;
#69 = DIRECTION ( 'NONE',  ( -1.000000000000000000, 0.000000000000000000, 0.000000000000000000 ) ) ;
#70 = APPLICATION_PROTOCOL_DEFINITION ( 'international standard', 'config_control_design', 1994, #60 ) ;
#71 = AXIS2_PLACEMENT_3D ( 'NONE', #47, #131, #187 ) ;
#72 = COORDINATED_UNIVERSAL_TIME_OFFSET ( 1, 0, .AHEAD. ) ;
#73 = AXIS2_PLACEMENT_3D ( 'NONE', #19, #255, #85 ) ;
#74 = PERSON_AND_ORGANIZATION ( #98, #6 ) ;
#75 = CC_DESIGN_PERSON_AND_ORGANIZATION_ASSIGNMENT ( #74, #156, ( #113 ) ) ;
#76 = ORIENTED_EDGE ( 'NONE', *, *, #234, .F. ) ;
#77 = CALENDAR_DATE ( 2023, 13, 2 ) ;
#78 = CARTESIAN_POINT ( 'NONE',  ( 9.000000000000000000, 1.102182119232617517E-15, 6.500000000000000000 ) ) ;
#79 = AXIS2_PLACEMENT_3D ( 'NONE', #57, #10, #140 ) ;
#80 = PERSON_AND_ORGANIZATION ( #98, #6 ) ;
#81 = ORIENTED_EDGE ( 'NONE', *, *, #221, .F. ) ;
#82 = ORIENTED_EDGE ( 'NONE', *, *, #127, .F. ) ;
#83 = ORIENTED_EDGE ( 'NONE', *, *, #15, .T. ) ;
#84 = ADVANCED_FACE ( 'NONE', ( #203 ), #135, .T. ) ;
#85 = DIRECTION ( 'NONE',  ( 1.000000000000000000, 0.000000000000000000, 0.000000000000000000 ) ) ;
#86 = AXIS2_PLACEMENT_3D ( 'NONE', #149, #129, #49 ) ;
#87 = PRODUCT_DEFINITION_SHAPE ( 'NONE', 'NONE',  #3 ) ;
#88 = DIRECTION ( 'NONE',  ( 0.000000000000000000, 0.000000000000000000, 1.000000000000000000 ) ) ;
#89 = AXIS2_PLACEMENT_3D ( 'NONE', #141, #209, #213 ) ;
#90 = EDGE_LOOP ( 'NONE', ( #150, #192, #83, #142 ) ) ;
#91 = DIRECTION ( 'NONE',  ( -0.000000000000000000, -0.000000000000000000, -1.000000000000000000 ) ) ;
#92 = CYLINDRICAL_SURFACE ( 'NONE', #207, 9.000000000000000000 ) ;
#93 = ORIENTED_EDGE ( 'NONE', *, *, #20, .F. ) ;
#94 = EDGE_CURVE ( 'NONE', #126, #14, #37, .T. ) ;
#95 =( LENGTH_UNIT ( ) NAMED_UNIT ( * ) SI_UNIT ( .MILLI., .METRE. ) );
#96 = PERSON_AND_ORGANIZATION ( #98, #6 ) ;
#97 = FACE_OUTER_BOUND ( 'NONE', #179, .T. ) ;
#98 = PERSON ( 'NEURÈENÝ', 'NEURÈENÝ', 'NEURÈENÝ', ('NEURÈENÝ'), ('NEURÈENÝ'), ('NEURÈENÝ') ) ;
#99 = ORIENTED_EDGE ( 'NONE', *, *, #20, .T. ) ;
#100 = DATE_TIME_ROLE ( 'creation_date' ) ;
#101 = CIRCLE ( 'NONE', #164, 9.000000000000000000 ) ;
#102 = APPROVAL_ROLE ( '' ) ;
#103 = ORIENTED_EDGE ( 'NONE', *, *, #94, .T. ) ;
#104 = CC_DESIGN_DATE_AND_TIME_ASSIGNMENT ( #215, #196, ( #161 ) ) ;
#105 = VERTEX_POINT ( 'NONE', #166 ) ;
#106 = AXIS2_PLACEMENT_3D ( 'NONE', #4, #226, #244 ) ;
#107 = ADVANCED_BREP_SHAPE_REPRESENTATION ( 'e613', ( #170, #254 ), #162 ) ;
#108 = DIRECTION ( 'NONE',  ( 1.000000000000000000, 0.000000000000000000, 0.000000000000000000 ) ) ;
#109 = LINE ( 'NONE', #2, #148 ) ;
#110 = FACE_BOUND ( 'NONE', #236, .T. ) ;
#111 = APPROVAL ( #31, 'NEURÈENÝ' ) ;
#112 = ORIENTED_EDGE ( 'NONE', *, *, #117, .F. ) ;
#113 = PRODUCT_DEFINITION_FORMATION_WITH_SPECIFIED_SOURCE ( 'LIBOVOLNÝ', '', #232, .NOT_KNOWN. ) ;
#114 = CARTESIAN_POINT ( 'NONE',  ( -9.000000000000000000, 0.000000000000000000, 6.500000000000000000 ) ) ;
#115 = CARTESIAN_POINT ( 'NONE',  ( 0.000000000000000000, 0.000000000000000000, 500.0000000000000000 ) ) ;
#116 = DIRECTION ( 'NONE',  ( 1.000000000000000000, 0.000000000000000000, 0.000000000000000000 ) ) ;
#117 = EDGE_CURVE ( 'NONE', #222, #171, #101, .T. ) ;
#118 = DATE_AND_TIME ( #35, #220 ) ;
#119 = CARTESIAN_POINT ( 'NONE',  ( 0.000000000000000000, 0.000000000000000000, 500.0000000000000000 ) ) ;
#120 = ORIENTED_EDGE ( 'NONE', *, *, #245, .T. ) ;
#121 = CALENDAR_DATE ( 2023, 13, 2 ) ;
#122 = LOCAL_TIME ( 12, 31, 20.00000000000000000, #252 ) ;
#123 = VERTEX_POINT ( 'NONE', #23 ) ;
#124 = APPROVAL_DATE_TIME ( #249, #253 ) ;
#125 = ADVANCED_FACE ( 'NONE', ( #110, #133 ), #205, .T. ) ;
#126 = VERTEX_POINT ( 'NONE', #227 ) ;
#127 = EDGE_CURVE ( 'NONE', #14, #126, #194, .T. ) ;
#128 = APPROVAL_PERSON_ORGANIZATION ( #233, #253, #247 ) ;
#129 = DIRECTION ( 'NONE',  ( 0.000000000000000000, 0.000000000000000000, 1.000000000000000000 ) ) ;
#130 = AXIS2_PLACEMENT_3D ( 'NONE', #115, #43, #108 ) ;
#131 = DIRECTION ( 'NONE',  ( -0.000000000000000000, -0.000000000000000000, -1.000000000000000000 ) ) ;
#132 = LOCAL_TIME ( 12, 31, 20.00000000000000000, #72 ) ;
#133 = FACE_OUTER_BOUND ( 'NONE', #146, .T. ) ;
#134 = DIRECTION ( 'NONE',  ( 1.000000000000000000, 0.000000000000000000, 0.000000000000000000 ) ) ;
#135 = CYLINDRICAL_SURFACE ( 'NONE', #71, 9.000000000000000000 ) ;
#136 = PERSON_AND_ORGANIZATION_ROLE ( 'design_owner' ) ;
#137 = CC_DESIGN_PERSON_AND_ORGANIZATION_ASSIGNMENT ( #55, #138, ( #3 ) ) ;
#138 = PERSON_AND_ORGANIZATION_ROLE ( 'creator' ) ;
#139 = ORIENTED_EDGE ( 'NONE', *, *, #117, .T. ) ;
#140 = DIRECTION ( 'NONE',  ( 1.000000000000000000, 0.000000000000000000, -0.000000000000000000 ) ) ;
#141 = CARTESIAN_POINT ( 'NONE',  ( 0.000000000000000000, 0.000000000000000000, 500.0000000000000000 ) ) ;
#142 = ORIENTED_EDGE ( 'NONE', *, *, #234, .T. ) ;
#143 = DIRECTION ( 'NONE',  ( -0.000000000000000000, -0.000000000000000000, -1.000000000000000000 ) ) ;
#144 = EDGE_CURVE ( 'NONE', #8, #222, #158, .T. ) ;
#145 = SHAPE_DEFINITION_REPRESENTATION ( #87, #107 ) ;
#146 = EDGE_LOOP ( 'NONE', ( #17, #120 ) ) ;
#147 = CARTESIAN_POINT ( 'NONE',  ( 9.000000000000000000, 1.102182119232617517E-15, 0.000000000000000000 ) ) ;
#148 = VECTOR ( 'NONE', #91, 1000.000000000000000 ) ;
#149 = CARTESIAN_POINT ( 'NONE',  ( 0.000000000000000000, 0.000000000000000000, 6.500000000000000000 ) ) ;
#150 = ORIENTED_EDGE ( 'NONE', *, *, #144, .F. ) ;
#151 = ORIENTED_EDGE ( 'NONE', *, *, #15, .F. ) ;
#152 = CARTESIAN_POINT ( 'NONE',  ( 0.000000000000000000, 0.000000000000000000, 6.500000000000000000 ) ) ;
#153 = DIRECTION ( 'NONE',  ( 1.000000000000000000, 0.000000000000000000, 0.000000000000000000 ) ) ;
#154 = CARTESIAN_POINT ( 'NONE',  ( 0.000000000000000000, 0.000000000000000000, 0.000000000000000000 ) ) ;
#155 = CYLINDRICAL_SURFACE ( 'NONE', #172, 6.000000000000000888 ) ;
#156 = PERSON_AND_ORGANIZATION_ROLE ( 'creator' ) ;
#157 =( NAMED_UNIT ( * ) SI_UNIT ( $, .STERADIAN. ) SOLID_ANGLE_UNIT ( ) );
#158 = LINE ( 'NONE', #78, #228 ) ;
#159 = COORDINATED_UNIVERSAL_TIME_OFFSET ( 1, 0, .AHEAD. ) ;
#160 = CIRCLE ( 'NONE', #106, 9.000000000000000000 ) ;
#161 = SECURITY_CLASSIFICATION ( '', '', #217 ) ;
#162 =( GEOMETRIC_REPRESENTATION_CONTEXT ( 3 ) GLOBAL_UNCERTAINTY_ASSIGNED_CONTEXT ( ( #56 ) ) GLOBAL_UNIT_ASSIGNED_CONTEXT ( ( #95, #27, #157 ) ) REPRESENTATION_CONTEXT ( 'NONE', 'WORKASPACE' ) );
#163 = CARTESIAN_POINT ( 'NONE',  ( 6.000000000000000888, 7.347880794884120722E-16, 500.0000000000000000 ) ) ;
#164 = AXIS2_PLACEMENT_3D ( 'NONE', #241, #26, #153 ) ;
#165 = ADVANCED_FACE ( 'NONE', ( #97 ), #155, .T. ) ;
#166 = CARTESIAN_POINT ( 'NONE',  ( -6.000000000000000888, 0.000000000000000000, 500.0000000000000000 ) ) ;
#167 = VECTOR ( 'NONE', #61, 1000.000000000000000 ) ;
#168 = ADVANCED_FACE ( 'NONE', ( #190 ), #176, .T. ) ;
#169 = CARTESIAN_POINT ( 'NONE',  ( -9.000000000000000000, 0.000000000000000000, 6.500000000000000000 ) ) ;
#170 = MANIFOLD_SOLID_BREP ( 'Pøidat vysunutím3', #64 ) ;
#171 = VERTEX_POINT ( 'NONE', #30 ) ;
#172 = AXIS2_PLACEMENT_3D ( 'NONE', #119, #143, #53 ) ;
#173 = DIRECTION ( 'NONE',  ( -0.000000000000000000, -0.000000000000000000, -1.000000000000000000 ) ) ;
#174 = PERSON_AND_ORGANIZATION ( #98, #6 ) ;
#175 = APPROVAL_STATUS ( 'not_yet_approved' ) ;
#176 = CYLINDRICAL_SURFACE ( 'NONE', #89, 6.000000000000000888 ) ;
#177 = ORIENTED_EDGE ( 'NONE', *, *, #144, .T. ) ;
#178 = COORDINATED_UNIVERSAL_TIME_OFFSET ( 1, 0, .AHEAD. ) ;
#179 = EDGE_LOOP ( 'NONE', ( #93, #191, #12, #40 ) ) ;
#180 = ORIENTED_EDGE ( 'NONE', *, *, #208, .F. ) ;
#181 = CC_DESIGN_APPROVAL ( #52, ( #161 ) ) ;
#182 = ADVANCED_FACE ( 'NONE', ( #63 ), #197, .T. ) ;
#183 = AXIS2_PLACEMENT_3D ( 'NONE', #200, #39, #216 ) ;
#184 = CC_DESIGN_DATE_AND_TIME_ASSIGNMENT ( #118, #100, ( #3 ) ) ;
#185 = DIRECTION ( 'NONE',  ( 1.000000000000000000, 0.000000000000000000, -0.000000000000000000 ) ) ;
#186 = ORIENTED_EDGE ( 'NONE', *, *, #221, .T. ) ;
#187 = DIRECTION ( 'NONE',  ( -1.000000000000000000, 0.000000000000000000, 0.000000000000000000 ) ) ;
#188 = CC_DESIGN_PERSON_AND_ORGANIZATION_ASSIGNMENT ( #96, #136, ( #232 ) ) ;
#189 = APPLICATION_PROTOCOL_DEFINITION ( 'international standard', 'config_control_design', 1994, #1 ) ;
#190 = FACE_OUTER_BOUND ( 'NONE', #18, .T. ) ;
#191 = ORIENTED_EDGE ( 'NONE', *, *, #208, .T. ) ;
#192 = ORIENTED_EDGE ( 'NONE', *, *, #24, .F. ) ;
#193 = PERSON_AND_ORGANIZATION ( #98, #6 ) ;
#194 = CIRCLE ( 'NONE', #86, 6.000000000000000888 ) ;
#195 = EDGE_LOOP ( 'NONE', ( #76, #112 ) ) ;
#196 = DATE_TIME_ROLE ( 'classification_date' ) ;
#197 = PLANE ( 'NONE',  #183 ) ;
#198 = EDGE_LOOP ( 'NONE', ( #186, #99 ) ) ;
#199 = DATE_AND_TIME ( #38, #122 ) ;
#200 = CARTESIAN_POINT ( 'NONE',  ( 0.000000000000000000, 0.000000000000000000, 500.0000000000000000 ) ) ;
#201 = CIRCLE ( 'NONE', #73, 6.000000000000000888 ) ;
#202 = CARTESIAN_POINT ( 'NONE',  ( 6.000000000000000888, 7.347880794884120722E-16, 6.500000000000000000 ) ) ;
#203 = FACE_OUTER_BOUND ( 'NONE', #248, .T. ) ;
#204 = AXIS2_PLACEMENT_3D ( 'NONE', #239, #223, #225 ) ;
#205 = PLANE ( 'NONE',  #51 ) ;
#206 = FACE_OUTER_BOUND ( 'NONE', #195, .T. ) ;
#207 = AXIS2_PLACEMENT_3D ( 'NONE', #50, #242, #69 ) ;
#208 = EDGE_CURVE ( 'NONE', #123, #14, #237, .T. ) ;
#209 = DIRECTION ( 'NONE',  ( -0.000000000000000000, -0.000000000000000000, -1.000000000000000000 ) ) ;
#210 = COORDINATED_UNIVERSAL_TIME_OFFSET ( 1, 0, .AHEAD. ) ;
#211 = MECHANICAL_CONTEXT ( 'NONE', #1, 'mechanical' ) ;
#212 = APPROVAL_DATE_TIME ( #230, #111 ) ;
#213 = DIRECTION ( 'NONE',  ( -1.000000000000000000, 0.000000000000000000, 0.000000000000000000 ) ) ;
#214 = PERSON_AND_ORGANIZATION_ROLE ( 'classification_officer' ) ;
#215 = DATE_AND_TIME ( #36, #33 ) ;
#216 = DIRECTION ( 'NONE',  ( 1.000000000000000000, 0.000000000000000000, -0.000000000000000000 ) ) ;
#217 = SECURITY_CLASSIFICATION_LEVEL ( 'unclassified' ) ;
#218 = CIRCLE ( 'NONE', #62, 9.000000000000000000 ) ;
#219 = CC_DESIGN_PERSON_AND_ORGANIZATION_ASSIGNMENT ( #80, #214, ( #161 ) ) ;
#220 = LOCAL_TIME ( 12, 31, 20.00000000000000000, #210 ) ;
#221 = EDGE_CURVE ( 'NONE', #105, #123, #201, .T. ) ;
#222 = VERTEX_POINT ( 'NONE', #147 ) ;
#223 = DIRECTION ( 'NONE',  ( 0.000000000000000000, 0.000000000000000000, 1.000000000000000000 ) ) ;
#224 = LINE ( 'NONE', #169, #21 ) ;
#225 = DIRECTION ( 'NONE',  ( 1.000000000000000000, 0.000000000000000000, 0.000000000000000000 ) ) ;
#226 = DIRECTION ( 'NONE',  ( 0.000000000000000000, 0.000000000000000000, 1.000000000000000000 ) ) ;
#227 = CARTESIAN_POINT ( 'NONE',  ( -6.000000000000000888, 0.000000000000000000, 6.500000000000000000 ) ) ;
#228 = VECTOR ( 'NONE', #7, 1000.000000000000000 ) ;
#229 = PLANE ( 'NONE',  #79 ) ;
#230 = DATE_AND_TIME ( #121, #132 ) ;
#231 = ORIENTED_EDGE ( 'NONE', *, *, #245, .F. ) ;
#232 = PRODUCT ( 'e613', 'e613', '', ( #211 ) ) ;
#233 = PERSON_AND_ORGANIZATION ( #98, #6 ) ;
#234 = EDGE_CURVE ( 'NONE', #171, #222, #22, .T. ) ;
#235 = APPROVAL_STATUS ( 'not_yet_approved' ) ;
#236 = EDGE_LOOP ( 'NONE', ( #66, #82 ) ) ;
#237 = LINE ( 'NONE', #163, #167 ) ;
#238 = APPROVAL_PERSON_ORGANIZATION ( #174, #111, #32 ) ;
#239 = CARTESIAN_POINT ( 'NONE',  ( 0.000000000000000000, 0.000000000000000000, 0.000000000000000000 ) ) ;
#240 = EDGE_CURVE ( 'NONE', #105, #126, #109, .T. ) ;
#241 = CARTESIAN_POINT ( 'NONE',  ( 0.000000000000000000, 0.000000000000000000, 0.000000000000000000 ) ) ;
#242 = DIRECTION ( 'NONE',  ( -0.000000000000000000, -0.000000000000000000, -1.000000000000000000 ) ) ;
#243 = CARTESIAN_POINT ( 'NONE',  ( 0.000000000000000000, 0.000000000000000000, 6.500000000000000000 ) ) ;
#244 = DIRECTION ( 'NONE',  ( 1.000000000000000000, 0.000000000000000000, 0.000000000000000000 ) ) ;
#245 = EDGE_CURVE ( 'NONE', #8, #251, #218, .T. ) ;
#246 = DESIGN_CONTEXT ( 'detailed design', #60, 'design' ) ;
#247 = APPROVAL_ROLE ( '' ) ;
#248 = EDGE_LOOP ( 'NONE', ( #231, #177, #139, #151 ) ) ;
#249 = DATE_AND_TIME ( #77, #13 ) ;
#250 = ADVANCED_FACE ( 'NONE', ( #206 ), #229, .F. ) ;
#251 = VERTEX_POINT ( 'NONE', #114 ) ;
#252 = COORDINATED_UNIVERSAL_TIME_OFFSET ( 1, 0, .AHEAD. ) ;
#253 = APPROVAL ( #175, 'NEURÈENÝ' ) ;
#254 = AXIS2_PLACEMENT_3D ( 'NONE', #154, #29, #116 ) ;
#255 = DIRECTION ( 'NONE',  ( 0.000000000000000000, 0.000000000000000000, 1.000000000000000000 ) ) ;
ENDSEC;
END-ISO-10303-21;
