ISO-10303-21;
HEADER;
FILE_DESCRIPTION (( 'STEP AP203' ),
    '1' );
FILE_NAME ('ed24.STEP',
    '2023-02-13T07:29:40',
    ( '' ),
    ( '' ),
    'SwSTEP 2.0',
    'SolidWorks 2019',
    '' );
FILE_SCHEMA (( 'CONFIG_CONTROL_DESIGN' ));
ENDSEC;

DATA;
#1 = VECTOR ( 'NONE', #128, 1000.000000000000000 ) ;
#2 = DIRECTION ( 'NONE',  ( 0.000000000000000000, 0.000000000000000000, 1.000000000000000000 ) ) ;
#3 =( LENGTH_UNIT ( ) NAMED_UNIT ( * ) SI_UNIT ( .MILLI., .METRE. ) );
#4 = APPROVAL ( #197, 'NEURÈENÝ' ) ;
#5 =( NAMED_UNIT ( * ) PLANE_ANGLE_UNIT ( ) SI_UNIT ( $, .RADIAN. ) );
#6 = CIRCLE ( 'NONE', #167, 16.00000000000000000 ) ;
#7 = CALENDAR_DATE ( 2023, 13, 2 ) ;
#8 = VERTEX_POINT ( 'NONE', #86 ) ;
#9 = MECHANICAL_CONTEXT ( 'NONE', #53, 'mechanical' ) ;
#10 = PERSON_AND_ORGANIZATION ( #217, #15 ) ;
#11 = CARTESIAN_POINT ( 'NONE',  ( 0.000000000000000000, 0.000000000000000000, 0.000000000000000000 ) ) ;
#12 = EDGE_CURVE ( 'NONE', #36, #8, #91, .T. ) ;
#13 = DIRECTION ( 'NONE',  ( 1.000000000000000000, 0.000000000000000000, 0.000000000000000000 ) ) ;
#14 = CARTESIAN_POINT ( 'NONE',  ( 16.00000000000000000, 1.959434878635765131E-15, 250.0000000000000000 ) ) ;
#15 = ORGANIZATION ( 'NEURÈENÝ', 'NEURÈENÝ', '' ) ;
#16 = ORIENTED_EDGE ( 'NONE', *, *, #238, .T. ) ;
#17 = CC_DESIGN_DATE_AND_TIME_ASSIGNMENT ( #209, #211, ( #250 ) ) ;
#18 = EDGE_LOOP ( 'NONE', ( #181, #187 ) ) ;
#19 = CARTESIAN_POINT ( 'NONE',  ( 0.000000000000000000, 0.000000000000000000, 10.00000000000000000 ) ) ;
#20 = APPROVAL_DATE_TIME ( #127, #191 ) ;
#21 = AXIS2_PLACEMENT_3D ( 'NONE', #37, #58, #232 ) ;
#22 = ADVANCED_FACE ( 'NONE', ( #90, #170 ), #245, .T. ) ;
#23 = CARTESIAN_POINT ( 'NONE',  ( 0.000000000000000000, 0.000000000000000000, 0.000000000000000000 ) ) ;
#24 = EDGE_LOOP ( 'NONE', ( #121, #113 ) ) ;
#25 = LOCAL_TIME ( 8, 29, 40.00000000000000000, #174 ) ;
#26 = CIRCLE ( 'NONE', #79, 20.00000000000000000 ) ;
#27 = ORIENTED_EDGE ( 'NONE', *, *, #100, .F. ) ;
#28 = CC_DESIGN_PERSON_AND_ORGANIZATION_ASSIGNMENT ( #220, #116, ( #250 ) ) ;
#29 = AXIS2_PLACEMENT_3D ( 'NONE', #95, #155, #120 ) ;
#30 = DIRECTION ( 'NONE',  ( 0.000000000000000000, 0.000000000000000000, 1.000000000000000000 ) ) ;
#31 = ORIENTED_EDGE ( 'NONE', *, *, #147, .F. ) ;
#32 = CC_DESIGN_SECURITY_CLASSIFICATION ( #250, ( #189 ) ) ;
#33 = FACE_OUTER_BOUND ( 'NONE', #18, .T. ) ;
#34 = CARTESIAN_POINT ( 'NONE',  ( -20.00000000000000000, 0.000000000000000000, 10.00000000000000000 ) ) ;
#35 = ADVANCED_FACE ( 'NONE', ( #74 ), #159, .T. ) ;
#36 = VERTEX_POINT ( 'NONE', #34 ) ;
#37 = CARTESIAN_POINT ( 'NONE',  ( 0.000000000000000000, 0.000000000000000000, 250.0000000000000000 ) ) ;
#38 = VERTEX_POINT ( 'NONE', #76 ) ;
#39 = DIRECTION ( 'NONE',  ( -1.000000000000000000, 0.000000000000000000, 0.000000000000000000 ) ) ;
#40 = DIRECTION ( 'NONE',  ( -0.000000000000000000, -0.000000000000000000, -1.000000000000000000 ) ) ;
#41 = LOCAL_TIME ( 8, 29, 40.00000000000000000, #179 ) ;
#42 = DIRECTION ( 'NONE',  ( 1.000000000000000000, 0.000000000000000000, -0.000000000000000000 ) ) ;
#43 = ORIENTED_EDGE ( 'NONE', *, *, #229, .T. ) ;
#44 = AXIS2_PLACEMENT_3D ( 'NONE', #109, #182, #64 ) ;
#45 = EDGE_CURVE ( 'NONE', #152, #38, #59, .T. ) ;
#46 = LOCAL_TIME ( 8, 29, 40.00000000000000000, #228 ) ;
#47 = EDGE_LOOP ( 'NONE', ( #227, #78, #173, #163 ) ) ;
#48 = EDGE_LOOP ( 'NONE', ( #153, #50, #43, #84 ) ) ;
#49 = CARTESIAN_POINT ( 'NONE',  ( 0.000000000000000000, 0.000000000000000000, 250.0000000000000000 ) ) ;
#50 = ORIENTED_EDGE ( 'NONE', *, *, #183, .F. ) ;
#51 = CALENDAR_DATE ( 2023, 13, 2 ) ;
#52 = CARTESIAN_POINT ( 'NONE',  ( 20.00000000000000000, 2.449293598294706513E-15, 0.000000000000000000 ) ) ;
#53 = APPLICATION_CONTEXT ( 'configuration controlled 3d designs of mechanical parts and assemblies' ) ;
#54 = AXIS2_PLACEMENT_3D ( 'NONE', #246, #212, #151 ) ;
#55 = DIRECTION ( 'NONE',  ( 0.000000000000000000, 0.000000000000000000, 1.000000000000000000 ) ) ;
#56 = DIRECTION ( 'NONE',  ( 1.000000000000000000, 0.000000000000000000, 0.000000000000000000 ) ) ;
#57 = CARTESIAN_POINT ( 'NONE',  ( 16.00000000000000000, 1.959434878635765131E-15, 10.00000000000000000 ) ) ;
#58 = DIRECTION ( 'NONE',  ( 0.000000000000000000, 0.000000000000000000, 1.000000000000000000 ) ) ;
#59 = CIRCLE ( 'NONE', #21, 16.00000000000000000 ) ;
#60 = LINE ( 'NONE', #140, #203 ) ;
#61 = DIRECTION ( 'NONE',  ( -0.000000000000000000, -0.000000000000000000, -1.000000000000000000 ) ) ;
#62 = APPROVAL_ROLE ( '' ) ;
#63 = AXIS2_PLACEMENT_3D ( 'NONE', #247, #249, #71 ) ;
#64 = DIRECTION ( 'NONE',  ( 1.000000000000000000, 0.000000000000000000, 0.000000000000000000 ) ) ;
#65 = PERSON_AND_ORGANIZATION ( #217, #15 ) ;
#66 = CIRCLE ( 'NONE', #221, 20.00000000000000000 ) ;
#67 = APPLICATION_PROTOCOL_DEFINITION ( 'international standard', 'config_control_design', 1994, #53 ) ;
#68 = EDGE_CURVE ( 'NONE', #36, #132, #60, .T. ) ;
#69 = SECURITY_CLASSIFICATION_LEVEL ( 'unclassified' ) ;
#70 = LOCAL_TIME ( 8, 29, 40.00000000000000000, #104 ) ;
#71 = DIRECTION ( 'NONE',  ( 1.000000000000000000, 0.000000000000000000, -0.000000000000000000 ) ) ;
#72 = DESIGN_CONTEXT ( 'detailed design', #193, 'design' ) ;
#73 = LINE ( 'NONE', #192, #195 ) ;
#74 = FACE_OUTER_BOUND ( 'NONE', #185, .T. ) ;
#75 = PRODUCT_DEFINITION ( 'NEZNÁMÝ', '', #189, #72 ) ;
#76 = CARTESIAN_POINT ( 'NONE',  ( -16.00000000000000000, 0.000000000000000000, 250.0000000000000000 ) ) ;
#77 = ORIENTED_EDGE ( 'NONE', *, *, #45, .T. ) ;
#78 = ORIENTED_EDGE ( 'NONE', *, *, #12, .F. ) ;
#79 = AXIS2_PLACEMENT_3D ( 'NONE', #23, #216, #81 ) ;
#80 = DIRECTION ( 'NONE',  ( -0.000000000000000000, -0.000000000000000000, -1.000000000000000000 ) ) ;
#81 = DIRECTION ( 'NONE',  ( 1.000000000000000000, 0.000000000000000000, 0.000000000000000000 ) ) ;
#82 = PERSON_AND_ORGANIZATION ( #217, #15 ) ;
#83 = AXIS2_PLACEMENT_3D ( 'NONE', #215, #177, #39 ) ;
#84 = ORIENTED_EDGE ( 'NONE', *, *, #147, .T. ) ;
#85 = DIRECTION ( 'NONE',  ( 0.000000000000000000, 0.000000000000000000, 1.000000000000000000 ) ) ;
#86 = CARTESIAN_POINT ( 'NONE',  ( 20.00000000000000000, 2.449293598294706513E-15, 10.00000000000000000 ) ) ;
#87 = APPROVAL_ROLE ( '' ) ;
#88 = AXIS2_PLACEMENT_3D ( 'NONE', #11, #85, #200 ) ;
#89 = COORDINATED_UNIVERSAL_TIME_OFFSET ( 1, 0, .AHEAD. ) ;
#90 = FACE_BOUND ( 'NONE', #98, .T. ) ;
#91 = CIRCLE ( 'NONE', #107, 20.00000000000000000 ) ;
#92 = APPROVAL_ROLE ( '' ) ;
#93 = DIRECTION ( 'NONE',  ( 1.000000000000000000, 0.000000000000000000, 0.000000000000000000 ) ) ;
#94 = CC_DESIGN_PERSON_AND_ORGANIZATION_ASSIGNMENT ( #10, #169, ( #189 ) ) ;
#95 = CARTESIAN_POINT ( 'NONE',  ( 0.000000000000000000, 0.000000000000000000, 250.0000000000000000 ) ) ;
#96 = ORIENTED_EDGE ( 'NONE', *, *, #205, .T. ) ;
#97 = DIRECTION ( 'NONE',  ( 1.000000000000000000, 0.000000000000000000, 0.000000000000000000 ) ) ;
#98 = EDGE_LOOP ( 'NONE', ( #31, #133 ) ) ;
#99 = DIRECTION ( 'NONE',  ( 0.000000000000000000, 0.000000000000000000, 1.000000000000000000 ) ) ;
#100 = EDGE_CURVE ( 'NONE', #8, #36, #66, .T. ) ;
#101 = FACE_OUTER_BOUND ( 'NONE', #48, .T. ) ;
#102 = PERSON_AND_ORGANIZATION ( #217, #15 ) ;
#103 = DATE_TIME_ROLE ( 'creation_date' ) ;
#104 = COORDINATED_UNIVERSAL_TIME_OFFSET ( 1, 0, .AHEAD. ) ;
#105 = EDGE_LOOP ( 'NONE', ( #108, #164, #16, #224 ) ) ;
#106 = PERSON_AND_ORGANIZATION_ROLE ( 'creator' ) ;
#107 = AXIS2_PLACEMENT_3D ( 'NONE', #240, #30, #13 ) ;
#108 = ORIENTED_EDGE ( 'NONE', *, *, #45, .F. ) ;
#109 = CARTESIAN_POINT ( 'NONE',  ( 0.000000000000000000, 0.000000000000000000, 10.00000000000000000 ) ) ;
#110 = SHAPE_DEFINITION_REPRESENTATION ( #145, #161 ) ;
#111 = CC_DESIGN_APPROVAL ( #4, ( #189 ) ) ;
#112 = CC_DESIGN_DATE_AND_TIME_ASSIGNMENT ( #196, #103, ( #75 ) ) ;
#113 = ORIENTED_EDGE ( 'NONE', *, *, #100, .T. ) ;
#114 = DIRECTION ( 'NONE',  ( 1.000000000000000000, 0.000000000000000000, 0.000000000000000000 ) ) ;
#115 = AXIS2_PLACEMENT_3D ( 'NONE', #175, #226, #186 ) ;
#116 = PERSON_AND_ORGANIZATION_ROLE ( 'classification_officer' ) ;
#117 = ADVANCED_FACE ( 'NONE', ( #101 ), #194, .T. ) ;
#118 = APPROVAL_STATUS ( 'not_yet_approved' ) ;
#119 = PERSON_AND_ORGANIZATION ( #217, #15 ) ;
#120 = DIRECTION ( 'NONE',  ( -1.000000000000000000, 0.000000000000000000, 0.000000000000000000 ) ) ;
#121 = ORIENTED_EDGE ( 'NONE', *, *, #12, .T. ) ;
#122 = CYLINDRICAL_SURFACE ( 'NONE', #29, 16.00000000000000000 ) ;
#123 = PRODUCT_RELATED_PRODUCT_CATEGORY ( 'detail', '', ( #255 ) ) ;
#124 = APPROVAL_PERSON_ORGANIZATION ( #201, #191, #62 ) ;
#125 = CALENDAR_DATE ( 2023, 13, 2 ) ;
#126 = CC_DESIGN_PERSON_AND_ORGANIZATION_ASSIGNMENT ( #65, #129, ( #255 ) ) ;
#127 = DATE_AND_TIME ( #125, #70 ) ;
#128 = DIRECTION ( 'NONE',  ( -0.000000000000000000, -0.000000000000000000, -1.000000000000000000 ) ) ;
#129 = PERSON_AND_ORGANIZATION_ROLE ( 'design_owner' ) ;
#130 = CALENDAR_DATE ( 2023, 13, 2 ) ;
#131 = ADVANCED_FACE ( 'NONE', ( #251 ), #122, .T. ) ;
#132 = VERTEX_POINT ( 'NONE', #253 ) ;
#133 = ORIENTED_EDGE ( 'NONE', *, *, #238, .F. ) ;
#134 = DIRECTION ( 'NONE',  ( 0.000000000000000000, 0.000000000000000000, 1.000000000000000000 ) ) ;
#135 = DIRECTION ( 'NONE',  ( -0.000000000000000000, -0.000000000000000000, -1.000000000000000000 ) ) ;
#136 = AXIS2_PLACEMENT_3D ( 'NONE', #157, #80, #235 ) ;
#137 = ORIENTED_EDGE ( 'NONE', *, *, #244, .T. ) ;
#138 = LINE ( 'NONE', #210, #1 ) ;
#139 = CYLINDRICAL_SURFACE ( 'NONE', #54, 20.00000000000000000 ) ;
#140 = CARTESIAN_POINT ( 'NONE',  ( -20.00000000000000000, 0.000000000000000000, 10.00000000000000000 ) ) ;
#141 = VERTEX_POINT ( 'NONE', #57 ) ;
#142 = CARTESIAN_POINT ( 'NONE',  ( 0.000000000000000000, 0.000000000000000000, 10.00000000000000000 ) ) ;
#143 = AXIS2_PLACEMENT_3D ( 'NONE', #231, #55, #93 ) ;
#144 = PLANE ( 'NONE',  #207 ) ;
#145 = PRODUCT_DEFINITION_SHAPE ( 'NONE', 'NONE',  #75 ) ;
#146 = CARTESIAN_POINT ( 'NONE',  ( 0.000000000000000000, 0.000000000000000000, 250.0000000000000000 ) ) ;
#147 = EDGE_CURVE ( 'NONE', #206, #141, #6, .T. ) ;
#148 = AXIS2_PLACEMENT_3D ( 'NONE', #49, #134, #114 ) ;
#149 = VERTEX_POINT ( 'NONE', #52 ) ;
#150 = CIRCLE ( 'NONE', #143, 20.00000000000000000 ) ;
#151 = DIRECTION ( 'NONE',  ( -1.000000000000000000, 0.000000000000000000, 0.000000000000000000 ) ) ;
#152 = VERTEX_POINT ( 'NONE', #14 ) ;
#153 = ORIENTED_EDGE ( 'NONE', *, *, #254, .F. ) ;
#154 = CIRCLE ( 'NONE', #44, 16.00000000000000000 ) ;
#155 = DIRECTION ( 'NONE',  ( -0.000000000000000000, -0.000000000000000000, -1.000000000000000000 ) ) ;
#156 = CC_DESIGN_PERSON_AND_ORGANIZATION_ASSIGNMENT ( #102, #106, ( #75 ) ) ;
#157 = CARTESIAN_POINT ( 'NONE',  ( 0.000000000000000000, 0.000000000000000000, 10.00000000000000000 ) ) ;
#158 = CIRCLE ( 'NONE', #148, 16.00000000000000000 ) ;
#159 = CYLINDRICAL_SURFACE ( 'NONE', #136, 20.00000000000000000 ) ;
#160 = LINE ( 'NONE', #237, #230 ) ;
#161 = ADVANCED_BREP_SHAPE_REPRESENTATION ( 'ed24', ( #233, #88 ), #180 ) ;
#162 = APPROVAL_PERSON_ORGANIZATION ( #82, #4, #87 ) ;
#163 = ORIENTED_EDGE ( 'NONE', *, *, #219, .T. ) ;
#164 = ORIENTED_EDGE ( 'NONE', *, *, #254, .T. ) ;
#165 = DATE_AND_TIME ( #51, #25 ) ;
#166 = APPROVAL_DATE_TIME ( #202, #4 ) ;
#167 = AXIS2_PLACEMENT_3D ( 'NONE', #19, #99, #56 ) ;
#168 = CC_DESIGN_PERSON_AND_ORGANIZATION_ASSIGNMENT ( #242, #243, ( #189 ) ) ;
#169 = PERSON_AND_ORGANIZATION_ROLE ( 'creator' ) ;
#170 = FACE_OUTER_BOUND ( 'NONE', #24, .T. ) ;
#171 = CC_DESIGN_APPROVAL ( #223, ( #250 ) ) ;
#172 = APPROVAL_PERSON_ORGANIZATION ( #119, #223, #92 ) ;
#173 = ORIENTED_EDGE ( 'NONE', *, *, #68, .T. ) ;
#174 = COORDINATED_UNIVERSAL_TIME_OFFSET ( 1, 0, .AHEAD. ) ;
#175 = CARTESIAN_POINT ( 'NONE',  ( 0.000000000000000000, 0.000000000000000000, 0.000000000000000000 ) ) ;
#176 = ADVANCED_FACE ( 'NONE', ( #248 ), #139, .T. ) ;
#177 = DIRECTION ( 'NONE',  ( -0.000000000000000000, -0.000000000000000000, -1.000000000000000000 ) ) ;
#178 = CLOSED_SHELL ( 'NONE', ( #131, #35, #176, #22, #198, #117, #236 ) ) ;
#179 = COORDINATED_UNIVERSAL_TIME_OFFSET ( 1, 0, .AHEAD. ) ;
#180 =( GEOMETRIC_REPRESENTATION_CONTEXT ( 3 ) GLOBAL_UNCERTAINTY_ASSIGNED_CONTEXT ( ( #234 ) ) GLOBAL_UNIT_ASSIGNED_CONTEXT ( ( #3, #5, #199 ) ) REPRESENTATION_CONTEXT ( 'NONE', 'WORKASPACE' ) );
#181 = ORIENTED_EDGE ( 'NONE', *, *, #219, .F. ) ;
#182 = DIRECTION ( 'NONE',  ( 0.000000000000000000, 0.000000000000000000, 1.000000000000000000 ) ) ;
#183 = EDGE_CURVE ( 'NONE', #38, #152, #158, .T. ) ;
#184 = LOCAL_TIME ( 8, 29, 40.00000000000000000, #89 ) ;
#185 = EDGE_LOOP ( 'NONE', ( #27, #96, #137, #214 ) ) ;
#186 = DIRECTION ( 'NONE',  ( 1.000000000000000000, 0.000000000000000000, -0.000000000000000000 ) ) ;
#187 = ORIENTED_EDGE ( 'NONE', *, *, #244, .F. ) ;
#188 = CALENDAR_DATE ( 2023, 13, 2 ) ;
#189 = PRODUCT_DEFINITION_FORMATION_WITH_SPECIFIED_SOURCE ( 'LIBOVOLNÝ', '', #255, .NOT_KNOWN. ) ;
#190 = PLANE ( 'NONE',  #115 ) ;
#191 = APPROVAL ( #118, 'NEURÈENÝ' ) ;
#192 = CARTESIAN_POINT ( 'NONE',  ( 20.00000000000000000, 2.449293598294706513E-15, 10.00000000000000000 ) ) ;
#193 = APPLICATION_CONTEXT ( 'configuration controlled 3d designs of mechanical parts and assemblies' ) ;
#194 = CYLINDRICAL_SURFACE ( 'NONE', #83, 16.00000000000000000 ) ;
#195 = VECTOR ( 'NONE', #135, 1000.000000000000000 ) ;
#196 = DATE_AND_TIME ( #7, #41 ) ;
#197 = APPROVAL_STATUS ( 'not_yet_approved' ) ;
#198 = ADVANCED_FACE ( 'NONE', ( #33 ), #190, .F. ) ;
#199 =( NAMED_UNIT ( * ) SI_UNIT ( $, .STERADIAN. ) SOLID_ANGLE_UNIT ( ) );
#200 = DIRECTION ( 'NONE',  ( 1.000000000000000000, 0.000000000000000000, 0.000000000000000000 ) ) ;
#201 = PERSON_AND_ORGANIZATION ( #217, #15 ) ;
#202 = DATE_AND_TIME ( #130, #184 ) ;
#203 = VECTOR ( 'NONE', #61, 1000.000000000000000 ) ;
#204 = EDGE_LOOP ( 'NONE', ( #252, #77 ) ) ;
#205 = EDGE_CURVE ( 'NONE', #8, #149, #73, .T. ) ;
#206 = VERTEX_POINT ( 'NONE', #208 ) ;
#207 = AXIS2_PLACEMENT_3D ( 'NONE', #146, #218, #42 ) ;
#208 = CARTESIAN_POINT ( 'NONE',  ( -16.00000000000000000, 0.000000000000000000, 10.00000000000000000 ) ) ;
#209 = DATE_AND_TIME ( #188, #46 ) ;
#210 = CARTESIAN_POINT ( 'NONE',  ( -16.00000000000000000, 0.000000000000000000, 250.0000000000000000 ) ) ;
#211 = DATE_TIME_ROLE ( 'classification_date' ) ;
#212 = DIRECTION ( 'NONE',  ( -0.000000000000000000, -0.000000000000000000, -1.000000000000000000 ) ) ;
#213 = CC_DESIGN_APPROVAL ( #191, ( #75 ) ) ;
#214 = ORIENTED_EDGE ( 'NONE', *, *, #68, .F. ) ;
#215 = CARTESIAN_POINT ( 'NONE',  ( 0.000000000000000000, 0.000000000000000000, 250.0000000000000000 ) ) ;
#216 = DIRECTION ( 'NONE',  ( 0.000000000000000000, 0.000000000000000000, 1.000000000000000000 ) ) ;
#217 = PERSON ( 'NEURÈENÝ', 'NEURÈENÝ', 'NEURÈENÝ', ('NEURÈENÝ'), ('NEURÈENÝ'), ('NEURÈENÝ') ) ;
#218 = DIRECTION ( 'NONE',  ( 0.000000000000000000, 0.000000000000000000, 1.000000000000000000 ) ) ;
#219 = EDGE_CURVE ( 'NONE', #132, #149, #150, .T. ) ;
#220 = PERSON_AND_ORGANIZATION ( #217, #15 ) ;
#221 = AXIS2_PLACEMENT_3D ( 'NONE', #142, #2, #97 ) ;
#222 = APPLICATION_PROTOCOL_DEFINITION ( 'international standard', 'config_control_design', 1994, #193 ) ;
#223 = APPROVAL ( #225, 'NEURÈENÝ' ) ;
#224 = ORIENTED_EDGE ( 'NONE', *, *, #229, .F. ) ;
#225 = APPROVAL_STATUS ( 'not_yet_approved' ) ;
#226 = DIRECTION ( 'NONE',  ( 0.000000000000000000, 0.000000000000000000, 1.000000000000000000 ) ) ;
#227 = ORIENTED_EDGE ( 'NONE', *, *, #205, .F. ) ;
#228 = COORDINATED_UNIVERSAL_TIME_OFFSET ( 1, 0, .AHEAD. ) ;
#229 = EDGE_CURVE ( 'NONE', #38, #206, #138, .T. ) ;
#230 = VECTOR ( 'NONE', #40, 1000.000000000000000 ) ;
#231 = CARTESIAN_POINT ( 'NONE',  ( 0.000000000000000000, 0.000000000000000000, 0.000000000000000000 ) ) ;
#232 = DIRECTION ( 'NONE',  ( 1.000000000000000000, 0.000000000000000000, 0.000000000000000000 ) ) ;
#233 = MANIFOLD_SOLID_BREP ( 'Pøidat vysunutím3', #178 ) ;
#234 = UNCERTAINTY_MEASURE_WITH_UNIT (LENGTH_MEASURE( 1.000000000000000082E-05 ), #3, 'distance_accuracy_value', 'NONE');
#235 = DIRECTION ( 'NONE',  ( -1.000000000000000000, 0.000000000000000000, 0.000000000000000000 ) ) ;
#236 = ADVANCED_FACE ( 'NONE', ( #239 ), #144, .T. ) ;
#237 = CARTESIAN_POINT ( 'NONE',  ( 16.00000000000000000, 1.959434878635765131E-15, 250.0000000000000000 ) ) ;
#238 = EDGE_CURVE ( 'NONE', #141, #206, #154, .T. ) ;
#239 = FACE_OUTER_BOUND ( 'NONE', #204, .T. ) ;
#240 = CARTESIAN_POINT ( 'NONE',  ( 0.000000000000000000, 0.000000000000000000, 10.00000000000000000 ) ) ;
#241 = APPROVAL_DATE_TIME ( #165, #223 ) ;
#242 = PERSON_AND_ORGANIZATION ( #217, #15 ) ;
#243 = PERSON_AND_ORGANIZATION_ROLE ( 'design_supplier' ) ;
#244 = EDGE_CURVE ( 'NONE', #149, #132, #26, .T. ) ;
#245 = PLANE ( 'NONE',  #63 ) ;
#246 = CARTESIAN_POINT ( 'NONE',  ( 0.000000000000000000, 0.000000000000000000, 10.00000000000000000 ) ) ;
#247 = CARTESIAN_POINT ( 'NONE',  ( 0.000000000000000000, 0.000000000000000000, 10.00000000000000000 ) ) ;
#248 = FACE_OUTER_BOUND ( 'NONE', #47, .T. ) ;
#249 = DIRECTION ( 'NONE',  ( 0.000000000000000000, 0.000000000000000000, 1.000000000000000000 ) ) ;
#250 = SECURITY_CLASSIFICATION ( '', '', #69 ) ;
#251 = FACE_OUTER_BOUND ( 'NONE', #105, .T. ) ;
#252 = ORIENTED_EDGE ( 'NONE', *, *, #183, .T. ) ;
#253 = CARTESIAN_POINT ( 'NONE',  ( -20.00000000000000000, 0.000000000000000000, 0.000000000000000000 ) ) ;
#254 = EDGE_CURVE ( 'NONE', #152, #141, #160, .T. ) ;
#255 = PRODUCT ( 'ed24', 'ed24', '', ( #9 ) ) ;
ENDSEC;
END-ISO-10303-21;
