ISO-10303-21;
HEADER;
FILE_DESCRIPTION (( 'STEP AP203' ),
    '1' );
FILE_NAME ('cd1c.STEP',
    '2023-02-13T16:03:55',
    ( '' ),
    ( '' ),
    'SwSTEP 2.0',
    'SolidWorks 2019',
    '' );
FILE_SCHEMA (( 'CONFIG_CONTROL_DESIGN' ));
ENDSEC;

DATA;
#1 = CARTESIAN_POINT ( 'NONE',  ( -5.000000000000000000, 0.000000000000000000, 5.000000000000000000 ) ) ;
#2 = COORDINATED_UNIVERSAL_TIME_OFFSET ( 1, 0, .AHEAD. ) ;
#3 = APPROVAL_DATE_TIME ( #181, #237 ) ;
#4 = CC_DESIGN_SECURITY_CLASSIFICATION ( #111, ( #21 ) ) ;
#5 = APPROVAL_DATE_TIME ( #219, #142 ) ;
#6 = DATE_TIME_ROLE ( 'creation_date' ) ;
#7 = AXIS2_PLACEMENT_3D ( 'NONE', #228, #126, #130 ) ;
#8 = CARTESIAN_POINT ( 'NONE',  ( 0.000000000000000000, 0.000000000000000000, 250.0000000000000000 ) ) ;
#9 = AXIS2_PLACEMENT_3D ( 'NONE', #221, #165, #144 ) ;
#10 = VERTEX_POINT ( 'NONE', #145 ) ;
#11 = ORIENTED_EDGE ( 'NONE', *, *, #96, .T. ) ;
#12 = EDGE_LOOP ( 'NONE', ( #138, #246 ) ) ;
#13 = ORIENTED_EDGE ( 'NONE', *, *, #25, .F. ) ;
#14 = VECTOR ( 'NONE', #239, 1000.000000000000000 ) ;
#15 = ORIENTED_EDGE ( 'NONE', *, *, #84, .T. ) ;
#16 = ORIENTED_EDGE ( 'NONE', *, *, #84, .F. ) ;
#17 = DIRECTION ( 'NONE',  ( 0.000000000000000000, 0.000000000000000000, 1.000000000000000000 ) ) ;
#18 = PRODUCT_DEFINITION_SHAPE ( 'NONE', 'NONE',  #191 ) ;
#19 = CARTESIAN_POINT ( 'NONE',  ( 0.000000000000000000, 0.000000000000000000, 250.0000000000000000 ) ) ;
#20 = CARTESIAN_POINT ( 'NONE',  ( 0.000000000000000000, 0.000000000000000000, 250.0000000000000000 ) ) ;
#21 = PRODUCT_DEFINITION_FORMATION_WITH_SPECIFIED_SOURCE ( 'LIBOVOLNÝ', '', #51, .NOT_KNOWN. ) ;
#22 = APPROVAL_STATUS ( 'not_yet_approved' ) ;
#23 = PERSON_AND_ORGANIZATION_ROLE ( 'design_owner' ) ;
#24 = PERSON_AND_ORGANIZATION_ROLE ( 'creator' ) ;
#25 = EDGE_CURVE ( 'NONE', #190, #125, #123, .T. ) ;
#26 = APPROVAL_DATE_TIME ( #158, #50 ) ;
#27 = CLOSED_SHELL ( 'NONE', ( #143, #154, #120, #241, #46, #129, #73 ) ) ;
#28 = ORIENTED_EDGE ( 'NONE', *, *, #250, .F. ) ;
#29 = PLANE ( 'NONE',  #242 ) ;
#30 = SHAPE_DEFINITION_REPRESENTATION ( #18, #65 ) ;
#31 = ORIENTED_EDGE ( 'NONE', *, *, #250, .T. ) ;
#32 = CC_DESIGN_DATE_AND_TIME_ASSIGNMENT ( #102, #6, ( #191 ) ) ;
#33 = DIRECTION ( 'NONE',  ( -0.000000000000000000, -0.000000000000000000, -1.000000000000000000 ) ) ;
#34 = DIRECTION ( 'NONE',  ( 0.000000000000000000, 0.000000000000000000, 1.000000000000000000 ) ) ;
#35 = MANIFOLD_SOLID_BREP ( 'Pøidat vysunutím3', #27 ) ;
#36 = CYLINDRICAL_SURFACE ( 'NONE', #220, 5.000000000000000000 ) ;
#37 = CARTESIAN_POINT ( 'NONE',  ( -2.600000000000000089, 0.000000000000000000, 5.000000000000000000 ) ) ;
#38 = DIRECTION ( 'NONE',  ( 0.000000000000000000, 0.000000000000000000, 1.000000000000000000 ) ) ;
#39 = PERSON_AND_ORGANIZATION ( #201, #91 ) ;
#40 = CC_DESIGN_PERSON_AND_ORGANIZATION_ASSIGNMENT ( #163, #63, ( #111 ) ) ;
#41 = APPLICATION_PROTOCOL_DEFINITION ( 'international standard', 'config_control_design', 1994, #42 ) ;
#42 = APPLICATION_CONTEXT ( 'configuration controlled 3d designs of mechanical parts and assemblies' ) ;
#43 = VECTOR ( 'NONE', #133, 1000.000000000000000 ) ;
#44 = AXIS2_PLACEMENT_3D ( 'NONE', #19, #94, #176 ) ;
#45 = ORIENTED_EDGE ( 'NONE', *, *, #96, .F. ) ;
#46 = ADVANCED_FACE ( 'NONE', ( #89 ), #226, .F. ) ;
#47 = DIRECTION ( 'NONE',  ( 1.000000000000000000, 0.000000000000000000, -0.000000000000000000 ) ) ;
#48 = ORIENTED_EDGE ( 'NONE', *, *, #169, .T. ) ;
#49 = CC_DESIGN_APPROVAL ( #142, ( #21 ) ) ;
#50 = APPROVAL ( #121, 'NEURÈENÝ' ) ;
#51 = PRODUCT ( 'cd1c', 'cd1c', '', ( #200 ) ) ;
#52 = FACE_OUTER_BOUND ( 'NONE', #233, .T. ) ;
#53 = DIRECTION ( 'NONE',  ( 1.000000000000000000, 0.000000000000000000, 0.000000000000000000 ) ) ;
#54 = CC_DESIGN_PERSON_AND_ORGANIZATION_ASSIGNMENT ( #39, #243, ( #21 ) ) ;
#55 = CARTESIAN_POINT ( 'NONE',  ( 0.000000000000000000, 0.000000000000000000, 5.000000000000000000 ) ) ;
#56 = CARTESIAN_POINT ( 'NONE',  ( 2.600000000000000089, 3.184081677783118191E-16, 5.000000000000000000 ) ) ;
#57 = DIRECTION ( 'NONE',  ( 0.000000000000000000, 0.000000000000000000, 1.000000000000000000 ) ) ;
#58 = AXIS2_PLACEMENT_3D ( 'NONE', #208, #38, #252 ) ;
#59 = AXIS2_PLACEMENT_3D ( 'NONE', #157, #57, #53 ) ;
#60 = COORDINATED_UNIVERSAL_TIME_OFFSET ( 1, 0, .AHEAD. ) ;
#61 = PERSON_AND_ORGANIZATION ( #201, #91 ) ;
#62 = AXIS2_PLACEMENT_3D ( 'NONE', #235, #238, #173 ) ;
#63 = PERSON_AND_ORGANIZATION_ROLE ( 'classification_officer' ) ;
#64 = CALENDAR_DATE ( 2023, 13, 2 ) ;
#65 = ADVANCED_BREP_SHAPE_REPRESENTATION ( 'cd1c', ( #35, #9 ), #225 ) ;
#66 = ORIENTED_EDGE ( 'NONE', *, *, #162, .T. ) ;
#67 = LOCAL_TIME ( 17, 3, 55.00000000000000000, #60 ) ;
#68 = EDGE_CURVE ( 'NONE', #166, #87, #229, .T. ) ;
#69 = FACE_OUTER_BOUND ( 'NONE', #167, .T. ) ;
#70 = DIRECTION ( 'NONE',  ( 0.000000000000000000, 0.000000000000000000, 1.000000000000000000 ) ) ;
#71 = ORIENTED_EDGE ( 'NONE', *, *, #189, .T. ) ;
#72 = ORIENTED_EDGE ( 'NONE', *, *, #86, .T. ) ;
#73 = ADVANCED_FACE ( 'NONE', ( #69 ), #29, .T. ) ;
#74 = FACE_BOUND ( 'NONE', #12, .T. ) ;
#75 = FACE_OUTER_BOUND ( 'NONE', #148, .T. ) ;
#76 = CARTESIAN_POINT ( 'NONE',  ( 5.000000000000000000, 6.123233995736766282E-16, 0.000000000000000000 ) ) ;
#77 = DIRECTION ( 'NONE',  ( -1.000000000000000000, 0.000000000000000000, 0.000000000000000000 ) ) ;
#78 = CYLINDRICAL_SURFACE ( 'NONE', #149, 2.600000000000000089 ) ;
#79 = CC_DESIGN_PERSON_AND_ORGANIZATION_ASSIGNMENT ( #85, #198, ( #191 ) ) ;
#80 =( NAMED_UNIT ( * ) SI_UNIT ( $, .STERADIAN. ) SOLID_ANGLE_UNIT ( ) );
#81 = DATE_AND_TIME ( #244, #251 ) ;
#82 = PERSON_AND_ORGANIZATION ( #201, #91 ) ;
#83 = COORDINATED_UNIVERSAL_TIME_OFFSET ( 1, 0, .AHEAD. ) ;
#84 = EDGE_CURVE ( 'NONE', #204, #125, #127, .T. ) ;
#85 = PERSON_AND_ORGANIZATION ( #201, #91 ) ;
#86 = EDGE_CURVE ( 'NONE', #10, #190, #95, .T. ) ;
#87 = VERTEX_POINT ( 'NONE', #211 ) ;
#88 = CIRCLE ( 'NONE', #97, 5.000000000000000000 ) ;
#89 = FACE_OUTER_BOUND ( 'NONE', #150, .T. ) ;
#90 = DIRECTION ( 'NONE',  ( -1.000000000000000000, 0.000000000000000000, 0.000000000000000000 ) ) ;
#91 = ORGANIZATION ( 'NEURÈENÝ', 'NEURÈENÝ', '' ) ;
#92 = DIRECTION ( 'NONE',  ( -1.000000000000000000, 0.000000000000000000, 0.000000000000000000 ) ) ;
#93 = CC_DESIGN_PERSON_AND_ORGANIZATION_ASSIGNMENT ( #140, #24, ( #21 ) ) ;
#94 = DIRECTION ( 'NONE',  ( 0.000000000000000000, 0.000000000000000000, 1.000000000000000000 ) ) ;
#95 = LINE ( 'NONE', #177, #43 ) ;
#96 = EDGE_CURVE ( 'NONE', #166, #136, #197, .T. ) ;
#97 = AXIS2_PLACEMENT_3D ( 'NONE', #192, #17, #215 ) ;
#98 = DIRECTION ( 'NONE',  ( -0.000000000000000000, -0.000000000000000000, -1.000000000000000000 ) ) ;
#99 = CALENDAR_DATE ( 2023, 13, 2 ) ;
#100 = APPROVAL_ROLE ( '' ) ;
#101 = SECURITY_CLASSIFICATION_LEVEL ( 'unclassified' ) ;
#102 = DATE_AND_TIME ( #64, #117 ) ;
#103 = APPROVAL_PERSON_ORGANIZATION ( #61, #50, #100 ) ;
#104 = CIRCLE ( 'NONE', #44, 2.600000000000000089 ) ;
#105 = UNCERTAINTY_MEASURE_WITH_UNIT (LENGTH_MEASURE( 1.000000000000000082E-05 ), #199, 'distance_accuracy_value', 'NONE');
#106 = ORIENTED_EDGE ( 'NONE', *, *, #86, .F. ) ;
#107 = DIRECTION ( 'NONE',  ( 1.000000000000000000, 0.000000000000000000, 0.000000000000000000 ) ) ;
#108 = ORIENTED_EDGE ( 'NONE', *, *, #203, .F. ) ;
#109 = ORIENTED_EDGE ( 'NONE', *, *, #169, .F. ) ;
#110 = CYLINDRICAL_SURFACE ( 'NONE', #214, 5.000000000000000000 ) ;
#111 = SECURITY_CLASSIFICATION ( '', '', #101 ) ;
#112 = DIRECTION ( 'NONE',  ( 1.000000000000000000, 0.000000000000000000, 0.000000000000000000 ) ) ;
#113 = CYLINDRICAL_SURFACE ( 'NONE', #62, 2.600000000000000089 ) ;
#114 = APPLICATION_CONTEXT ( 'configuration controlled 3d designs of mechanical parts and assemblies' ) ;
#115 = VECTOR ( 'NONE', #137, 1000.000000000000000 ) ;
#116 = CARTESIAN_POINT ( 'NONE',  ( -2.600000000000000089, 0.000000000000000000, 250.0000000000000000 ) ) ;
#117 = LOCAL_TIME ( 17, 3, 55.00000000000000000, #83 ) ;
#118 = CARTESIAN_POINT ( 'NONE',  ( 2.600000000000000089, 3.184081677783118191E-16, 250.0000000000000000 ) ) ;
#119 = PERSON_AND_ORGANIZATION ( #201, #91 ) ;
#120 = ADVANCED_FACE ( 'NONE', ( #151 ), #36, .T. ) ;
#121 = APPROVAL_STATUS ( 'not_yet_approved' ) ;
#122 =( NAMED_UNIT ( * ) PLANE_ANGLE_UNIT ( ) SI_UNIT ( $, .RADIAN. ) );
#123 = CIRCLE ( 'NONE', #128, 5.000000000000000000 ) ;
#124 = CIRCLE ( 'NONE', #205, 2.600000000000000089 ) ;
#125 = VERTEX_POINT ( 'NONE', #196 ) ;
#126 = DIRECTION ( 'NONE',  ( 0.000000000000000000, 0.000000000000000000, 1.000000000000000000 ) ) ;
#127 = LINE ( 'NONE', #1, #14 ) ;
#128 = AXIS2_PLACEMENT_3D ( 'NONE', #187, #147, #107 ) ;
#129 = ADVANCED_FACE ( 'NONE', ( #213 ), #113, .T. ) ;
#130 = DIRECTION ( 'NONE',  ( 1.000000000000000000, 0.000000000000000000, 0.000000000000000000 ) ) ;
#131 = CC_DESIGN_APPROVAL ( #50, ( #191 ) ) ;
#132 = ORIENTED_EDGE ( 'NONE', *, *, #68, .F. ) ;
#133 = DIRECTION ( 'NONE',  ( -0.000000000000000000, -0.000000000000000000, -1.000000000000000000 ) ) ;
#134 = DIRECTION ( 'NONE',  ( -0.000000000000000000, -0.000000000000000000, -1.000000000000000000 ) ) ;
#135 = PLANE ( 'NONE',  #159 ) ;
#136 = VERTEX_POINT ( 'NONE', #37 ) ;
#137 = DIRECTION ( 'NONE',  ( -0.000000000000000000, -0.000000000000000000, -1.000000000000000000 ) ) ;
#138 = ORIENTED_EDGE ( 'NONE', *, *, #162, .F. ) ;
#139 = LINE ( 'NONE', #118, #146 ) ;
#140 = PERSON_AND_ORGANIZATION ( #201, #91 ) ;
#141 = COORDINATED_UNIVERSAL_TIME_OFFSET ( 1, 0, .AHEAD. ) ;
#142 = APPROVAL ( #218, 'NEURÈENÝ' ) ;
#143 = ADVANCED_FACE ( 'NONE', ( #232 ), #78, .T. ) ;
#144 = DIRECTION ( 'NONE',  ( 1.000000000000000000, 0.000000000000000000, 0.000000000000000000 ) ) ;
#145 = CARTESIAN_POINT ( 'NONE',  ( 5.000000000000000000, 6.123233995736766282E-16, 5.000000000000000000 ) ) ;
#146 = VECTOR ( 'NONE', #33, 1000.000000000000000 ) ;
#147 = DIRECTION ( 'NONE',  ( 0.000000000000000000, 0.000000000000000000, 1.000000000000000000 ) ) ;
#148 = EDGE_LOOP ( 'NONE', ( #109, #72, #212, #16 ) ) ;
#149 = AXIS2_PLACEMENT_3D ( 'NONE', #20, #134, #77 ) ;
#150 = EDGE_LOOP ( 'NONE', ( #170, #13 ) ) ;
#151 = FACE_OUTER_BOUND ( 'NONE', #172, .T. ) ;
#152 = VERTEX_POINT ( 'NONE', #56 ) ;
#153 = CARTESIAN_POINT ( 'NONE',  ( -2.600000000000000089, 0.000000000000000000, 250.0000000000000000 ) ) ;
#154 = ADVANCED_FACE ( 'NONE', ( #75 ), #110, .T. ) ;
#155 = CARTESIAN_POINT ( 'NONE',  ( 0.000000000000000000, 0.000000000000000000, 5.000000000000000000 ) ) ;
#156 = DIRECTION ( 'NONE',  ( -0.000000000000000000, -0.000000000000000000, -1.000000000000000000 ) ) ;
#157 = CARTESIAN_POINT ( 'NONE',  ( 0.000000000000000000, 0.000000000000000000, 0.000000000000000000 ) ) ;
#158 = DATE_AND_TIME ( #202, #67 ) ;
#159 = AXIS2_PLACEMENT_3D ( 'NONE', #175, #34, #194 ) ;
#160 = DATE_TIME_ROLE ( 'classification_date' ) ;
#161 = APPROVAL_ROLE ( '' ) ;
#162 = EDGE_CURVE ( 'NONE', #136, #152, #185, .T. ) ;
#163 = PERSON_AND_ORGANIZATION ( #201, #91 ) ;
#164 = LOCAL_TIME ( 17, 3, 55.00000000000000000, #141 ) ;
#165 = DIRECTION ( 'NONE',  ( 0.000000000000000000, 0.000000000000000000, 1.000000000000000000 ) ) ;
#166 = VERTEX_POINT ( 'NONE', #153 ) ;
#167 = EDGE_LOOP ( 'NONE', ( #206, #31 ) ) ;
#168 = ORIENTED_EDGE ( 'NONE', *, *, #178, .T. ) ;
#169 = EDGE_CURVE ( 'NONE', #10, #204, #174, .T. ) ;
#170 = ORIENTED_EDGE ( 'NONE', *, *, #178, .F. ) ;
#171 = ORIENTED_EDGE ( 'NONE', *, *, #183, .T. ) ;
#172 = EDGE_LOOP ( 'NONE', ( #106, #108, #15, #168 ) ) ;
#173 = DIRECTION ( 'NONE',  ( -1.000000000000000000, 0.000000000000000000, 0.000000000000000000 ) ) ;
#174 = CIRCLE ( 'NONE', #216, 5.000000000000000000 ) ;
#175 = CARTESIAN_POINT ( 'NONE',  ( 0.000000000000000000, 0.000000000000000000, 5.000000000000000000 ) ) ;
#176 = DIRECTION ( 'NONE',  ( 1.000000000000000000, 0.000000000000000000, 0.000000000000000000 ) ) ;
#177 = CARTESIAN_POINT ( 'NONE',  ( 5.000000000000000000, 6.123233995736766282E-16, 5.000000000000000000 ) ) ;
#178 = EDGE_CURVE ( 'NONE', #125, #190, #217, .T. ) ;
#179 = DIRECTION ( 'NONE',  ( 1.000000000000000000, 0.000000000000000000, 0.000000000000000000 ) ) ;
#180 = APPROVAL_ROLE ( '' ) ;
#181 = DATE_AND_TIME ( #99, #193 ) ;
#182 = CALENDAR_DATE ( 2023, 13, 2 ) ;
#183 = EDGE_CURVE ( 'NONE', #87, #152, #139, .T. ) ;
#184 = COORDINATED_UNIVERSAL_TIME_OFFSET ( 1, 0, .AHEAD. ) ;
#185 = CIRCLE ( 'NONE', #58, 2.600000000000000089 ) ;
#186 = CC_DESIGN_PERSON_AND_ORGANIZATION_ASSIGNMENT ( #82, #23, ( #51 ) ) ;
#187 = CARTESIAN_POINT ( 'NONE',  ( 0.000000000000000000, 0.000000000000000000, 0.000000000000000000 ) ) ;
#188 = PRODUCT_RELATED_PRODUCT_CATEGORY ( 'detail', '', ( #51 ) ) ;
#189 = EDGE_CURVE ( 'NONE', #152, #136, #124, .T. ) ;
#190 = VERTEX_POINT ( 'NONE', #76 ) ;
#191 = PRODUCT_DEFINITION ( 'NEZNÁMÝ', '', #21, #227 ) ;
#192 = CARTESIAN_POINT ( 'NONE',  ( 0.000000000000000000, 0.000000000000000000, 5.000000000000000000 ) ) ;
#193 = LOCAL_TIME ( 17, 3, 55.00000000000000000, #2 ) ;
#194 = DIRECTION ( 'NONE',  ( 1.000000000000000000, 0.000000000000000000, -0.000000000000000000 ) ) ;
#195 = DIRECTION ( 'NONE',  ( 0.000000000000000000, 0.000000000000000000, 1.000000000000000000 ) ) ;
#196 = CARTESIAN_POINT ( 'NONE',  ( -5.000000000000000000, 0.000000000000000000, 0.000000000000000000 ) ) ;
#197 = LINE ( 'NONE', #116, #115 ) ;
#198 = PERSON_AND_ORGANIZATION_ROLE ( 'creator' ) ;
#199 =( LENGTH_UNIT ( ) NAMED_UNIT ( * ) SI_UNIT ( .MILLI., .METRE. ) );
#200 = MECHANICAL_CONTEXT ( 'NONE', #42, 'mechanical' ) ;
#201 = PERSON ( 'NEURÈENÝ', 'NEURÈENÝ', 'NEURÈENÝ', ('NEURÈENÝ'), ('NEURÈENÝ'), ('NEURÈENÝ') ) ;
#202 = CALENDAR_DATE ( 2023, 13, 2 ) ;
#203 = EDGE_CURVE ( 'NONE', #204, #10, #88, .T. ) ;
#204 = VERTEX_POINT ( 'NONE', #253 ) ;
#205 = AXIS2_PLACEMENT_3D ( 'NONE', #55, #210, #112 ) ;
#206 = ORIENTED_EDGE ( 'NONE', *, *, #68, .T. ) ;
#207 = EDGE_LOOP ( 'NONE', ( #231, #132, #11, #66 ) ) ;
#208 = CARTESIAN_POINT ( 'NONE',  ( 0.000000000000000000, 0.000000000000000000, 5.000000000000000000 ) ) ;
#209 = AXIS2_PLACEMENT_3D ( 'NONE', #249, #70, #224 ) ;
#210 = DIRECTION ( 'NONE',  ( 0.000000000000000000, 0.000000000000000000, 1.000000000000000000 ) ) ;
#211 = CARTESIAN_POINT ( 'NONE',  ( 2.600000000000000089, 3.184081677783118191E-16, 250.0000000000000000 ) ) ;
#212 = ORIENTED_EDGE ( 'NONE', *, *, #25, .T. ) ;
#213 = FACE_OUTER_BOUND ( 'NONE', #207, .T. ) ;
#214 = AXIS2_PLACEMENT_3D ( 'NONE', #255, #98, #92 ) ;
#215 = DIRECTION ( 'NONE',  ( 1.000000000000000000, 0.000000000000000000, 0.000000000000000000 ) ) ;
#216 = AXIS2_PLACEMENT_3D ( 'NONE', #234, #195, #179 ) ;
#217 = CIRCLE ( 'NONE', #59, 5.000000000000000000 ) ;
#218 = APPROVAL_STATUS ( 'not_yet_approved' ) ;
#219 = DATE_AND_TIME ( #182, #164 ) ;
#220 = AXIS2_PLACEMENT_3D ( 'NONE', #155, #156, #90 ) ;
#221 = CARTESIAN_POINT ( 'NONE',  ( 0.000000000000000000, 0.000000000000000000, 0.000000000000000000 ) ) ;
#222 = CC_DESIGN_APPROVAL ( #237, ( #111 ) ) ;
#223 = PERSON_AND_ORGANIZATION ( #201, #91 ) ;
#224 = DIRECTION ( 'NONE',  ( 1.000000000000000000, 0.000000000000000000, -0.000000000000000000 ) ) ;
#225 =( GEOMETRIC_REPRESENTATION_CONTEXT ( 3 ) GLOBAL_UNCERTAINTY_ASSIGNED_CONTEXT ( ( #105 ) ) GLOBAL_UNIT_ASSIGNED_CONTEXT ( ( #199, #122, #80 ) ) REPRESENTATION_CONTEXT ( 'NONE', 'WORKASPACE' ) );
#226 = PLANE ( 'NONE',  #209 ) ;
#227 = DESIGN_CONTEXT ( 'detailed design', #114, 'design' ) ;
#228 = CARTESIAN_POINT ( 'NONE',  ( 0.000000000000000000, 0.000000000000000000, 250.0000000000000000 ) ) ;
#229 = CIRCLE ( 'NONE', #7, 2.600000000000000089 ) ;
#230 = APPROVAL_PERSON_ORGANIZATION ( #119, #142, #161 ) ;
#231 = ORIENTED_EDGE ( 'NONE', *, *, #183, .F. ) ;
#232 = FACE_OUTER_BOUND ( 'NONE', #245, .T. ) ;
#233 = EDGE_LOOP ( 'NONE', ( #248, #48 ) ) ;
#234 = CARTESIAN_POINT ( 'NONE',  ( 0.000000000000000000, 0.000000000000000000, 5.000000000000000000 ) ) ;
#235 = CARTESIAN_POINT ( 'NONE',  ( 0.000000000000000000, 0.000000000000000000, 250.0000000000000000 ) ) ;
#236 = APPROVAL_PERSON_ORGANIZATION ( #223, #237, #180 ) ;
#237 = APPROVAL ( #22, 'NEURÈENÝ' ) ;
#238 = DIRECTION ( 'NONE',  ( -0.000000000000000000, -0.000000000000000000, -1.000000000000000000 ) ) ;
#239 = DIRECTION ( 'NONE',  ( -0.000000000000000000, -0.000000000000000000, -1.000000000000000000 ) ) ;
#240 = APPLICATION_PROTOCOL_DEFINITION ( 'international standard', 'config_control_design', 1994, #114 ) ;
#241 = ADVANCED_FACE ( 'NONE', ( #74, #52 ), #135, .T. ) ;
#242 = AXIS2_PLACEMENT_3D ( 'NONE', #8, #247, #47 ) ;
#243 = PERSON_AND_ORGANIZATION_ROLE ( 'design_supplier' ) ;
#244 = CALENDAR_DATE ( 2023, 13, 2 ) ;
#245 = EDGE_LOOP ( 'NONE', ( #28, #171, #71, #45 ) ) ;
#246 = ORIENTED_EDGE ( 'NONE', *, *, #189, .F. ) ;
#247 = DIRECTION ( 'NONE',  ( 0.000000000000000000, 0.000000000000000000, 1.000000000000000000 ) ) ;
#248 = ORIENTED_EDGE ( 'NONE', *, *, #203, .T. ) ;
#249 = CARTESIAN_POINT ( 'NONE',  ( 0.000000000000000000, 0.000000000000000000, 0.000000000000000000 ) ) ;
#250 = EDGE_CURVE ( 'NONE', #87, #166, #104, .T. ) ;
#251 = LOCAL_TIME ( 17, 3, 55.00000000000000000, #184 ) ;
#252 = DIRECTION ( 'NONE',  ( 1.000000000000000000, 0.000000000000000000, 0.000000000000000000 ) ) ;
#253 = CARTESIAN_POINT ( 'NONE',  ( -5.000000000000000000, 0.000000000000000000, 5.000000000000000000 ) ) ;
#254 = CC_DESIGN_DATE_AND_TIME_ASSIGNMENT ( #81, #160, ( #111 ) ) ;
#255 = CARTESIAN_POINT ( 'NONE',  ( 0.000000000000000000, 0.000000000000000000, 5.000000000000000000 ) ) ;
ENDSEC;
END-ISO-10303-21;
