ISO-10303-21;
HEADER;
FILE_DESCRIPTION (( 'STEP AP203' ),
    '1' );
FILE_NAME ('950b.STEP',
    '2023-02-13T09:43:11',
    ( '' ),
    ( '' ),
    'SwSTEP 2.0',
    'SolidWorks 2019',
    '' );
FILE_SCHEMA (( 'CONFIG_CONTROL_DESIGN' ));
ENDSEC;

DATA;
#1 = PERSON_AND_ORGANIZATION ( #254, #114 ) ;
#2 = DIRECTION ( 'NONE',  ( 0.000000000000000000, 0.000000000000000000, 1.000000000000000000 ) ) ;
#3 = LOCAL_TIME ( 10, 43, 11.00000000000000000, #134 ) ;
#4 = LOCAL_TIME ( 10, 43, 11.00000000000000000, #182 ) ;
#5 = APPROVAL_ROLE ( '' ) ;
#6 = CC_DESIGN_SECURITY_CLASSIFICATION ( #62, ( #27 ) ) ;
#7 = ORIENTED_EDGE ( 'NONE', *, *, #146, .F. ) ;
#8 = ADVANCED_FACE ( 'NONE', ( #201 ), #50, .T. ) ;
#9 = CIRCLE ( 'NONE', #40, 8.000000000000000000 ) ;
#10 = DIRECTION ( 'NONE',  ( -0.000000000000000000, -0.000000000000000000, -1.000000000000000000 ) ) ;
#11 = VERTEX_POINT ( 'NONE', #167 ) ;
#12 = EDGE_CURVE ( 'NONE', #86, #107, #102, .T. ) ;
#13 = VERTEX_POINT ( 'NONE', #221 ) ;
#14 = DIRECTION ( 'NONE',  ( -1.000000000000000000, 0.000000000000000000, 0.000000000000000000 ) ) ;
#15 = CC_DESIGN_APPROVAL ( #205, ( #202 ) ) ;
#16 = EDGE_CURVE ( 'NONE', #11, #110, #242, .T. ) ;
#17 = APPROVAL_ROLE ( '' ) ;
#18 = DIRECTION ( 'NONE',  ( -0.000000000000000000, -0.000000000000000000, -1.000000000000000000 ) ) ;
#19 = PERSON_AND_ORGANIZATION ( #254, #114 ) ;
#20 = DIRECTION ( 'NONE',  ( 0.000000000000000000, 0.000000000000000000, 1.000000000000000000 ) ) ;
#21 = AXIS2_PLACEMENT_3D ( 'NONE', #181, #2, #22 ) ;
#22 = DIRECTION ( 'NONE',  ( 1.000000000000000000, 0.000000000000000000, 0.000000000000000000 ) ) ;
#23 = DIRECTION ( 'NONE',  ( 1.000000000000000000, 0.000000000000000000, 0.000000000000000000 ) ) ;
#24 = PLANE ( 'NONE',  #142 ) ;
#25 = CARTESIAN_POINT ( 'NONE',  ( 8.000000000000000000, 9.797174393178825657E-16, 7.000000000000000000 ) ) ;
#26 = CARTESIAN_POINT ( 'NONE',  ( 0.000000000000000000, 0.000000000000000000, 7.000000000000000000 ) ) ;
#27 = PRODUCT_DEFINITION_FORMATION_WITH_SPECIFIED_SOURCE ( 'LIBOVOLNÝ', '', #236, .NOT_KNOWN. ) ;
#28 = ORIENTED_EDGE ( 'NONE', *, *, #16, .T. ) ;
#29 =( GEOMETRIC_REPRESENTATION_CONTEXT ( 3 ) GLOBAL_UNCERTAINTY_ASSIGNED_CONTEXT ( ( #162 ) ) GLOBAL_UNIT_ASSIGNED_CONTEXT ( ( #210, #190, #173 ) ) REPRESENTATION_CONTEXT ( 'NONE', 'WORKASPACE' ) );
#30 = ORIENTED_EDGE ( 'NONE', *, *, #216, .T. ) ;
#31 = LOCAL_TIME ( 10, 43, 11.00000000000000000, #41 ) ;
#32 = EDGE_LOOP ( 'NONE', ( #223, #198, #204, #170 ) ) ;
#33 = DIRECTION ( 'NONE',  ( 1.000000000000000000, 0.000000000000000000, 0.000000000000000000 ) ) ;
#34 = ADVANCED_FACE ( 'NONE', ( #154 ), #249, .T. ) ;
#35 = DIRECTION ( 'NONE',  ( -0.000000000000000000, -0.000000000000000000, -1.000000000000000000 ) ) ;
#36 = DATE_AND_TIME ( #121, #231 ) ;
#37 = CC_DESIGN_APPROVAL ( #87, ( #27 ) ) ;
#38 = DIRECTION ( 'NONE',  ( 0.000000000000000000, 0.000000000000000000, 1.000000000000000000 ) ) ;
#39 = COORDINATED_UNIVERSAL_TIME_OFFSET ( 1, 0, .AHEAD. ) ;
#40 = AXIS2_PLACEMENT_3D ( 'NONE', #93, #226, #138 ) ;
#41 = COORDINATED_UNIVERSAL_TIME_OFFSET ( 1, 0, .AHEAD. ) ;
#42 = FACE_BOUND ( 'NONE', #129, .T. ) ;
#43 = EDGE_CURVE ( 'NONE', #107, #86, #9, .T. ) ;
#44 = APPROVAL_DATE_TIME ( #144, #214 ) ;
#45 = DIRECTION ( 'NONE',  ( 0.000000000000000000, 0.000000000000000000, 1.000000000000000000 ) ) ;
#46 = ORIENTED_EDGE ( 'NONE', *, *, #247, .F. ) ;
#47 = ORIENTED_EDGE ( 'NONE', *, *, #52, .F. ) ;
#48 = ORIENTED_EDGE ( 'NONE', *, *, #247, .T. ) ;
#49 = ADVANCED_FACE ( 'NONE', ( #53 ), #156, .T. ) ;
#50 = CYLINDRICAL_SURFACE ( 'NONE', #122, 8.000000000000000000 ) ;
#51 = CARTESIAN_POINT ( 'NONE',  ( -8.000000000000000000, 0.000000000000000000, 630.0000000000000000 ) ) ;
#52 = EDGE_CURVE ( 'NONE', #107, #222, #113, .T. ) ;
#53 = FACE_OUTER_BOUND ( 'NONE', #32, .T. ) ;
#54 = DIRECTION ( 'NONE',  ( -1.000000000000000000, 0.000000000000000000, 0.000000000000000000 ) ) ;
#55 = APPLICATION_CONTEXT ( 'configuration controlled 3d designs of mechanical parts and assemblies' ) ;
#56 = PERSON_AND_ORGANIZATION ( #254, #114 ) ;
#57 = EDGE_CURVE ( 'NONE', #128, #150, #109, .T. ) ;
#58 = AXIS2_PLACEMENT_3D ( 'NONE', #72, #153, #14 ) ;
#59 = CALENDAR_DATE ( 2023, 13, 2 ) ;
#60 = SECURITY_CLASSIFICATION_LEVEL ( 'unclassified' ) ;
#61 = DIRECTION ( 'NONE',  ( 0.000000000000000000, 0.000000000000000000, 1.000000000000000000 ) ) ;
#62 = SECURITY_CLASSIFICATION ( '', '', #60 ) ;
#63 = MANIFOLD_SOLID_BREP ( 'Pøidat vysunutím3', #179 ) ;
#64 = FACE_OUTER_BOUND ( 'NONE', #131, .T. ) ;
#65 = ORIENTED_EDGE ( 'NONE', *, *, #43, .F. ) ;
#66 = ORIENTED_EDGE ( 'NONE', *, *, #146, .T. ) ;
#67 = DIRECTION ( 'NONE',  ( 0.000000000000000000, 0.000000000000000000, 1.000000000000000000 ) ) ;
#68 = CIRCLE ( 'NONE', #238, 8.000000000000000000 ) ;
#69 = AXIS2_PLACEMENT_3D ( 'NONE', #192, #188, #23 ) ;
#70 = ORIENTED_EDGE ( 'NONE', *, *, #220, .T. ) ;
#71 = VECTOR ( 'NONE', #18, 1000.000000000000000 ) ;
#72 = CARTESIAN_POINT ( 'NONE',  ( 0.000000000000000000, 0.000000000000000000, 7.000000000000000000 ) ) ;
#73 = FACE_OUTER_BOUND ( 'NONE', #199, .T. ) ;
#74 = DIRECTION ( 'NONE',  ( -1.000000000000000000, 0.000000000000000000, 0.000000000000000000 ) ) ;
#75 = ADVANCED_BREP_SHAPE_REPRESENTATION ( '950b', ( #63, #69 ), #29 ) ;
#76 = VECTOR ( 'NONE', #240, 1000.000000000000000 ) ;
#77 = APPROVAL_PERSON_ORGANIZATION ( #19, #214, #5 ) ;
#78 = LINE ( 'NONE', #157, #71 ) ;
#79 = APPLICATION_CONTEXT ( 'configuration controlled 3d designs of mechanical parts and assemblies' ) ;
#80 = PERSON_AND_ORGANIZATION_ROLE ( 'creator' ) ;
#81 = DESIGN_CONTEXT ( 'detailed design', #55, 'design' ) ;
#82 = APPLICATION_PROTOCOL_DEFINITION ( 'international standard', 'config_control_design', 1994, #79 ) ;
#83 = CIRCLE ( 'NONE', #228, 12.00000000000000178 ) ;
#84 = LINE ( 'NONE', #239, #92 ) ;
#85 = AXIS2_PLACEMENT_3D ( 'NONE', #124, #45, #123 ) ;
#86 = VERTEX_POINT ( 'NONE', #51 ) ;
#87 = APPROVAL ( #115, 'NEURÈENÝ' ) ;
#88 = EDGE_LOOP ( 'NONE', ( #65, #246, #30, #169 ) ) ;
#89 = AXIS2_PLACEMENT_3D ( 'NONE', #189, #20, #132 ) ;
#90 = CC_DESIGN_PERSON_AND_ORGANIZATION_ASSIGNMENT ( #94, #177, ( #27 ) ) ;
#91 = CARTESIAN_POINT ( 'NONE',  ( 8.000000000000000000, 9.797174393178825657E-16, 630.0000000000000000 ) ) ;
#92 = VECTOR ( 'NONE', #176, 1000.000000000000000 ) ;
#93 = CARTESIAN_POINT ( 'NONE',  ( 0.000000000000000000, 0.000000000000000000, 630.0000000000000000 ) ) ;
#94 = PERSON_AND_ORGANIZATION ( #254, #114 ) ;
#95 = DATE_TIME_ROLE ( 'creation_date' ) ;
#96 = EDGE_CURVE ( 'NONE', #110, #128, #78, .T. ) ;
#97 = CARTESIAN_POINT ( 'NONE',  ( -12.00000000000000178, 0.000000000000000000, 0.000000000000000000 ) ) ;
#98 = CIRCLE ( 'NONE', #85, 12.00000000000000178 ) ;
#99 = DIRECTION ( 'NONE',  ( 1.000000000000000000, 0.000000000000000000, -0.000000000000000000 ) ) ;
#100 = APPROVAL_DATE_TIME ( #208, #205 ) ;
#101 = DIRECTION ( 'NONE',  ( 0.000000000000000000, 0.000000000000000000, 1.000000000000000000 ) ) ;
#102 = CIRCLE ( 'NONE', #200, 8.000000000000000000 ) ;
#103 = APPLICATION_PROTOCOL_DEFINITION ( 'international standard', 'config_control_design', 1994, #55 ) ;
#104 = DIRECTION ( 'NONE',  ( 1.000000000000000000, 0.000000000000000000, -0.000000000000000000 ) ) ;
#105 = LOCAL_TIME ( 10, 43, 11.00000000000000000, #158 ) ;
#106 = SHAPE_DEFINITION_REPRESENTATION ( #193, #75 ) ;
#107 = VERTEX_POINT ( 'NONE', #91 ) ;
#108 = EDGE_LOOP ( 'NONE', ( #184, #28 ) ) ;
#109 = CIRCLE ( 'NONE', #183, 12.00000000000000178 ) ;
#110 = VERTEX_POINT ( 'NONE', #250 ) ;
#111 = ADVANCED_FACE ( 'NONE', ( #73 ), #117, .T. ) ;
#112 = CARTESIAN_POINT ( 'NONE',  ( 0.000000000000000000, 0.000000000000000000, 630.0000000000000000 ) ) ;
#113 = LINE ( 'NONE', #252, #166 ) ;
#114 = ORGANIZATION ( 'NEURÈENÝ', 'NEURÈENÝ', '' ) ;
#115 = APPROVAL_STATUS ( 'not_yet_approved' ) ;
#116 = DATE_TIME_ROLE ( 'classification_date' ) ;
#117 = PLANE ( 'NONE',  #89 ) ;
#118 = CC_DESIGN_APPROVAL ( #214, ( #62 ) ) ;
#119 = CC_DESIGN_PERSON_AND_ORGANIZATION_ASSIGNMENT ( #141, #213, ( #62 ) ) ;
#120 = FACE_OUTER_BOUND ( 'NONE', #108, .T. ) ;
#121 = CALENDAR_DATE ( 2023, 13, 2 ) ;
#122 = AXIS2_PLACEMENT_3D ( 'NONE', #243, #10, #219 ) ;
#123 = DIRECTION ( 'NONE',  ( 1.000000000000000000, 0.000000000000000000, 0.000000000000000000 ) ) ;
#124 = CARTESIAN_POINT ( 'NONE',  ( 0.000000000000000000, 0.000000000000000000, 7.000000000000000000 ) ) ;
#125 = ORIENTED_EDGE ( 'NONE', *, *, #43, .T. ) ;
#126 = ADVANCED_FACE ( 'NONE', ( #207 ), #233, .T. ) ;
#127 = APPROVAL_PERSON_ORGANIZATION ( #155, #205, #17 ) ;
#128 = VERTEX_POINT ( 'NONE', #97 ) ;
#129 = EDGE_LOOP ( 'NONE', ( #46, #241 ) ) ;
#130 = EDGE_LOOP ( 'NONE', ( #164, #70, #66, #206 ) ) ;
#131 = EDGE_LOOP ( 'NONE', ( #203, #7 ) ) ;
#132 = DIRECTION ( 'NONE',  ( 1.000000000000000000, 0.000000000000000000, -0.000000000000000000 ) ) ;
#133 = CARTESIAN_POINT ( 'NONE',  ( 0.000000000000000000, 0.000000000000000000, 7.000000000000000000 ) ) ;
#134 = COORDINATED_UNIVERSAL_TIME_OFFSET ( 1, 0, .AHEAD. ) ;
#135 = ADVANCED_FACE ( 'NONE', ( #42, #120 ), #160, .T. ) ;
#136 = DATE_AND_TIME ( #59, #105 ) ;
#137 = APPROVAL_ROLE ( '' ) ;
#138 = DIRECTION ( 'NONE',  ( 1.000000000000000000, 0.000000000000000000, 0.000000000000000000 ) ) ;
#139 = CC_DESIGN_PERSON_AND_ORGANIZATION_ASSIGNMENT ( #1, #80, ( #202 ) ) ;
#140 = CARTESIAN_POINT ( 'NONE',  ( 0.000000000000000000, 0.000000000000000000, 7.000000000000000000 ) ) ;
#141 = PERSON_AND_ORGANIZATION ( #254, #114 ) ;
#142 = AXIS2_PLACEMENT_3D ( 'NONE', #215, #101, #104 ) ;
#143 = LINE ( 'NONE', #148, #76 ) ;
#144 = DATE_AND_TIME ( #195, #4 ) ;
#145 = DIRECTION ( 'NONE',  ( 0.000000000000000000, 0.000000000000000000, 1.000000000000000000 ) ) ;
#146 = EDGE_CURVE ( 'NONE', #150, #128, #83, .T. ) ;
#147 = AXIS2_PLACEMENT_3D ( 'NONE', #112, #227, #54 ) ;
#148 = CARTESIAN_POINT ( 'NONE',  ( 12.00000000000000178, 1.469576158976824144E-15, 7.000000000000000000 ) ) ;
#149 = ORIENTED_EDGE ( 'NONE', *, *, #12, .F. ) ;
#150 = VERTEX_POINT ( 'NONE', #178 ) ;
#151 = DIRECTION ( 'NONE',  ( 1.000000000000000000, 0.000000000000000000, 0.000000000000000000 ) ) ;
#152 = AXIS2_PLACEMENT_3D ( 'NONE', #230, #38, #174 ) ;
#153 = DIRECTION ( 'NONE',  ( -0.000000000000000000, -0.000000000000000000, -1.000000000000000000 ) ) ;
#154 = FACE_OUTER_BOUND ( 'NONE', #130, .T. ) ;
#155 = PERSON_AND_ORGANIZATION ( #254, #114 ) ;
#156 = CYLINDRICAL_SURFACE ( 'NONE', #185, 12.00000000000000178 ) ;
#157 = CARTESIAN_POINT ( 'NONE',  ( -12.00000000000000178, 0.000000000000000000, 7.000000000000000000 ) ) ;
#158 = COORDINATED_UNIVERSAL_TIME_OFFSET ( 1, 0, .AHEAD. ) ;
#159 = DATE_AND_TIME ( #209, #31 ) ;
#160 = PLANE ( 'NONE',  #197 ) ;
#161 = PERSON_AND_ORGANIZATION ( #254, #114 ) ;
#162 = UNCERTAINTY_MEASURE_WITH_UNIT (LENGTH_MEASURE( 1.000000000000000082E-05 ), #210, 'distance_accuracy_value', 'NONE');
#163 = CARTESIAN_POINT ( 'NONE',  ( 0.000000000000000000, 0.000000000000000000, 0.000000000000000000 ) ) ;
#164 = ORIENTED_EDGE ( 'NONE', *, *, #16, .F. ) ;
#165 = EDGE_LOOP ( 'NONE', ( #47, #149, #248, #48 ) ) ;
#166 = VECTOR ( 'NONE', #171, 1000.000000000000000 ) ;
#167 = CARTESIAN_POINT ( 'NONE',  ( 12.00000000000000178, 1.469576158976824144E-15, 7.000000000000000000 ) ) ;
#168 = APPROVAL_PERSON_ORGANIZATION ( #161, #87, #137 ) ;
#169 = ORIENTED_EDGE ( 'NONE', *, *, #255, .F. ) ;
#170 = ORIENTED_EDGE ( 'NONE', *, *, #57, .T. ) ;
#171 = DIRECTION ( 'NONE',  ( -0.000000000000000000, -0.000000000000000000, -1.000000000000000000 ) ) ;
#172 = PRODUCT_RELATED_PRODUCT_CATEGORY ( 'detail', '', ( #236 ) ) ;
#173 =( NAMED_UNIT ( * ) SI_UNIT ( $, .STERADIAN. ) SOLID_ANGLE_UNIT ( ) );
#174 = DIRECTION ( 'NONE',  ( 1.000000000000000000, 0.000000000000000000, 0.000000000000000000 ) ) ;
#175 = APPROVAL_STATUS ( 'not_yet_approved' ) ;
#176 = DIRECTION ( 'NONE',  ( -0.000000000000000000, -0.000000000000000000, -1.000000000000000000 ) ) ;
#177 = PERSON_AND_ORGANIZATION_ROLE ( 'creator' ) ;
#178 = CARTESIAN_POINT ( 'NONE',  ( 12.00000000000000178, 1.469576158976824144E-15, 0.000000000000000000 ) ) ;
#179 = CLOSED_SHELL ( 'NONE', ( #8, #34, #49, #135, #224, #126, #111 ) ) ;
#180 = PERSON_AND_ORGANIZATION_ROLE ( 'design_owner' ) ;
#181 = CARTESIAN_POINT ( 'NONE',  ( 0.000000000000000000, 0.000000000000000000, 7.000000000000000000 ) ) ;
#182 = COORDINATED_UNIVERSAL_TIME_OFFSET ( 1, 0, .AHEAD. ) ;
#183 = AXIS2_PLACEMENT_3D ( 'NONE', #187, #211, #33 ) ;
#184 = ORIENTED_EDGE ( 'NONE', *, *, #229, .T. ) ;
#185 = AXIS2_PLACEMENT_3D ( 'NONE', #133, #35, #74 ) ;
#186 = CC_DESIGN_DATE_AND_TIME_ASSIGNMENT ( #36, #116, ( #62 ) ) ;
#187 = CARTESIAN_POINT ( 'NONE',  ( 0.000000000000000000, 0.000000000000000000, 0.000000000000000000 ) ) ;
#188 = DIRECTION ( 'NONE',  ( 0.000000000000000000, 0.000000000000000000, 1.000000000000000000 ) ) ;
#189 = CARTESIAN_POINT ( 'NONE',  ( 0.000000000000000000, 0.000000000000000000, 630.0000000000000000 ) ) ;
#190 =( NAMED_UNIT ( * ) PLANE_ANGLE_UNIT ( ) SI_UNIT ( $, .RADIAN. ) );
#191 = CC_DESIGN_PERSON_AND_ORGANIZATION_ASSIGNMENT ( #212, #235, ( #27 ) ) ;
#192 = CARTESIAN_POINT ( 'NONE',  ( 0.000000000000000000, 0.000000000000000000, 0.000000000000000000 ) ) ;
#193 = PRODUCT_DEFINITION_SHAPE ( 'NONE', 'NONE',  #202 ) ;
#194 = DIRECTION ( 'NONE',  ( 1.000000000000000000, 0.000000000000000000, 0.000000000000000000 ) ) ;
#195 = CALENDAR_DATE ( 2023, 13, 2 ) ;
#196 = DIRECTION ( 'NONE',  ( 1.000000000000000000, 0.000000000000000000, 0.000000000000000000 ) ) ;
#197 = AXIS2_PLACEMENT_3D ( 'NONE', #26, #237, #99 ) ;
#198 = ORIENTED_EDGE ( 'NONE', *, *, #229, .F. ) ;
#199 = EDGE_LOOP ( 'NONE', ( #217, #125 ) ) ;
#200 = AXIS2_PLACEMENT_3D ( 'NONE', #245, #67, #151 ) ;
#201 = FACE_OUTER_BOUND ( 'NONE', #88, .T. ) ;
#202 = PRODUCT_DEFINITION ( 'NEZNÁMÝ', '', #27, #81 ) ;
#203 = ORIENTED_EDGE ( 'NONE', *, *, #57, .F. ) ;
#204 = ORIENTED_EDGE ( 'NONE', *, *, #96, .T. ) ;
#205 = APPROVAL ( #175, 'NEURÈENÝ' ) ;
#206 = ORIENTED_EDGE ( 'NONE', *, *, #96, .F. ) ;
#207 = FACE_OUTER_BOUND ( 'NONE', #165, .T. ) ;
#208 = DATE_AND_TIME ( #253, #3 ) ;
#209 = CALENDAR_DATE ( 2023, 13, 2 ) ;
#210 =( LENGTH_UNIT ( ) NAMED_UNIT ( * ) SI_UNIT ( .MILLI., .METRE. ) );
#211 = DIRECTION ( 'NONE',  ( 0.000000000000000000, 0.000000000000000000, 1.000000000000000000 ) ) ;
#212 = PERSON_AND_ORGANIZATION ( #254, #114 ) ;
#213 = PERSON_AND_ORGANIZATION_ROLE ( 'classification_officer' ) ;
#214 = APPROVAL ( #218, 'NEURÈENÝ' ) ;
#215 = CARTESIAN_POINT ( 'NONE',  ( 0.000000000000000000, 0.000000000000000000, 0.000000000000000000 ) ) ;
#216 = EDGE_CURVE ( 'NONE', #222, #13, #68, .T. ) ;
#217 = ORIENTED_EDGE ( 'NONE', *, *, #12, .T. ) ;
#218 = APPROVAL_STATUS ( 'not_yet_approved' ) ;
#219 = DIRECTION ( 'NONE',  ( -1.000000000000000000, 0.000000000000000000, 0.000000000000000000 ) ) ;
#220 = EDGE_CURVE ( 'NONE', #11, #150, #143, .T. ) ;
#221 = CARTESIAN_POINT ( 'NONE',  ( -8.000000000000000000, 0.000000000000000000, 7.000000000000000000 ) ) ;
#222 = VERTEX_POINT ( 'NONE', #25 ) ;
#223 = ORIENTED_EDGE ( 'NONE', *, *, #220, .F. ) ;
#224 = ADVANCED_FACE ( 'NONE', ( #64 ), #24, .F. ) ;
#225 = CIRCLE ( 'NONE', #21, 8.000000000000000000 ) ;
#226 = DIRECTION ( 'NONE',  ( 0.000000000000000000, 0.000000000000000000, 1.000000000000000000 ) ) ;
#227 = DIRECTION ( 'NONE',  ( -0.000000000000000000, -0.000000000000000000, -1.000000000000000000 ) ) ;
#228 = AXIS2_PLACEMENT_3D ( 'NONE', #163, #145, #194 ) ;
#229 = EDGE_CURVE ( 'NONE', #110, #11, #98, .T. ) ;
#230 = CARTESIAN_POINT ( 'NONE',  ( 0.000000000000000000, 0.000000000000000000, 7.000000000000000000 ) ) ;
#231 = LOCAL_TIME ( 10, 43, 11.00000000000000000, #39 ) ;
#232 = MECHANICAL_CONTEXT ( 'NONE', #79, 'mechanical' ) ;
#233 = CYLINDRICAL_SURFACE ( 'NONE', #147, 8.000000000000000000 ) ;
#234 = APPROVAL_DATE_TIME ( #159, #87 ) ;
#235 = PERSON_AND_ORGANIZATION_ROLE ( 'design_supplier' ) ;
#236 = PRODUCT ( '950b', '950b', '', ( #232 ) ) ;
#237 = DIRECTION ( 'NONE',  ( 0.000000000000000000, 0.000000000000000000, 1.000000000000000000 ) ) ;
#238 = AXIS2_PLACEMENT_3D ( 'NONE', #140, #61, #196 ) ;
#239 = CARTESIAN_POINT ( 'NONE',  ( -8.000000000000000000, 0.000000000000000000, 630.0000000000000000 ) ) ;
#240 = DIRECTION ( 'NONE',  ( -0.000000000000000000, -0.000000000000000000, -1.000000000000000000 ) ) ;
#241 = ORIENTED_EDGE ( 'NONE', *, *, #216, .F. ) ;
#242 = CIRCLE ( 'NONE', #152, 12.00000000000000178 ) ;
#243 = CARTESIAN_POINT ( 'NONE',  ( 0.000000000000000000, 0.000000000000000000, 630.0000000000000000 ) ) ;
#244 = CC_DESIGN_DATE_AND_TIME_ASSIGNMENT ( #136, #95, ( #202 ) ) ;
#245 = CARTESIAN_POINT ( 'NONE',  ( 0.000000000000000000, 0.000000000000000000, 630.0000000000000000 ) ) ;
#246 = ORIENTED_EDGE ( 'NONE', *, *, #52, .T. ) ;
#247 = EDGE_CURVE ( 'NONE', #13, #222, #225, .T. ) ;
#248 = ORIENTED_EDGE ( 'NONE', *, *, #255, .T. ) ;
#249 = CYLINDRICAL_SURFACE ( 'NONE', #58, 12.00000000000000178 ) ;
#250 = CARTESIAN_POINT ( 'NONE',  ( -12.00000000000000178, 0.000000000000000000, 7.000000000000000000 ) ) ;
#251 = CC_DESIGN_PERSON_AND_ORGANIZATION_ASSIGNMENT ( #56, #180, ( #236 ) ) ;
#252 = CARTESIAN_POINT ( 'NONE',  ( 8.000000000000000000, 9.797174393178825657E-16, 630.0000000000000000 ) ) ;
#253 = CALENDAR_DATE ( 2023, 13, 2 ) ;
#254 = PERSON ( 'NEURÈENÝ', 'NEURÈENÝ', 'NEURÈENÝ', ('NEURÈENÝ'), ('NEURÈENÝ'), ('NEURÈENÝ') ) ;
#255 = EDGE_CURVE ( 'NONE', #86, #13, #84, .T. ) ;
ENDSEC;
END-ISO-10303-21;
