ISO-10303-21;
HEADER;
FILE_DESCRIPTION (( 'STEP AP203' ),
    '1' );
FILE_NAME ('51ab.STEP',
    '2023-02-13T07:31:28',
    ( '' ),
    ( '' ),
    'SwSTEP 2.0',
    'SolidWorks 2019',
    '' );
FILE_SCHEMA (( 'CONFIG_CONTROL_DESIGN' ));
ENDSEC;

DATA;
#1 = PERSON_AND_ORGANIZATION ( #252, #22 ) ;
#2 = DIRECTION ( 'NONE',  ( 1.000000000000000000, 0.000000000000000000, -0.000000000000000000 ) ) ;
#3 = CARTESIAN_POINT ( 'NONE',  ( -16.00000000000000000, 0.000000000000000000, 10.00000000000000000 ) ) ;
#4 = LOCAL_TIME ( 8, 31, 28.00000000000000000, #44 ) ;
#5 = APPROVAL ( #88, 'NEURÈENÝ' ) ;
#6 = UNCERTAINTY_MEASURE_WITH_UNIT (LENGTH_MEASURE( 1.000000000000000082E-05 ), #33, 'distance_accuracy_value', 'NONE');
#7 = CIRCLE ( 'NONE', #159, 12.50000000000000000 ) ;
#8 = SECURITY_CLASSIFICATION_LEVEL ( 'unclassified' ) ;
#9 = EDGE_CURVE ( 'NONE', #97, #120, #183, .T. ) ;
#10 = CARTESIAN_POINT ( 'NONE',  ( 12.50000000000000000, 1.530808498934191521E-15, 630.0000000000000000 ) ) ;
#11 = ORIENTED_EDGE ( 'NONE', *, *, #72, .T. ) ;
#12 = CC_DESIGN_PERSON_AND_ORGANIZATION_ASSIGNMENT ( #110, #109, ( #242 ) ) ;
#13 = VERTEX_POINT ( 'NONE', #10 ) ;
#14 = ORIENTED_EDGE ( 'NONE', *, *, #125, .F. ) ;
#15 = EDGE_CURVE ( 'NONE', #156, #232, #64, .T. ) ;
#16 = ORIENTED_EDGE ( 'NONE', *, *, #9, .T. ) ;
#17 = MANIFOLD_SOLID_BREP ( 'Pøidat vysunutím3', #203 ) ;
#18 = DIRECTION ( 'NONE',  ( 1.000000000000000000, 0.000000000000000000, 0.000000000000000000 ) ) ;
#19 = COORDINATED_UNIVERSAL_TIME_OFFSET ( 1, 0, .AHEAD. ) ;
#20 = LINE ( 'NONE', #220, #168 ) ;
#21 = ADVANCED_FACE ( 'NONE', ( #53, #31 ), #255, .T. ) ;
#22 = ORGANIZATION ( 'NEURÈENÝ', 'NEURÈENÝ', '' ) ;
#23 = FACE_OUTER_BOUND ( 'NONE', #122, .T. ) ;
#24 = APPROVAL_DATE_TIME ( #127, #101 ) ;
#25 = DIRECTION ( 'NONE',  ( 1.000000000000000000, 0.000000000000000000, 0.000000000000000000 ) ) ;
#26 = EDGE_CURVE ( 'NONE', #212, #93, #200, .T. ) ;
#27 = LOCAL_TIME ( 8, 31, 28.00000000000000000, #100 ) ;
#28 = PERSON_AND_ORGANIZATION ( #252, #22 ) ;
#29 = DIRECTION ( 'NONE',  ( 1.000000000000000000, 0.000000000000000000, -0.000000000000000000 ) ) ;
#30 = CARTESIAN_POINT ( 'NONE',  ( 0.000000000000000000, 0.000000000000000000, 10.00000000000000000 ) ) ;
#31 = FACE_OUTER_BOUND ( 'NONE', #49, .T. ) ;
#32 = PRODUCT_DEFINITION ( 'NEZNÁMÝ', '', #242, #129 ) ;
#33 =( LENGTH_UNIT ( ) NAMED_UNIT ( * ) SI_UNIT ( .MILLI., .METRE. ) );
#34 = DIRECTION ( 'NONE',  ( 1.000000000000000000, 0.000000000000000000, 0.000000000000000000 ) ) ;
#35 = FACE_OUTER_BOUND ( 'NONE', #133, .T. ) ;
#36 = VECTOR ( 'NONE', #209, 1000.000000000000000 ) ;
#37 = ORIENTED_EDGE ( 'NONE', *, *, #72, .F. ) ;
#38 = LINE ( 'NONE', #107, #134 ) ;
#39 = CARTESIAN_POINT ( 'NONE',  ( 0.000000000000000000, 0.000000000000000000, 0.000000000000000000 ) ) ;
#40 = AXIS2_PLACEMENT_3D ( 'NONE', #201, #181, #2 ) ;
#41 = APPLICATION_PROTOCOL_DEFINITION ( 'international standard', 'config_control_design', 1994, #188 ) ;
#42 = CARTESIAN_POINT ( 'NONE',  ( 0.000000000000000000, 0.000000000000000000, 630.0000000000000000 ) ) ;
#43 = PLANE ( 'NONE',  #40 ) ;
#44 = COORDINATED_UNIVERSAL_TIME_OFFSET ( 1, 0, .AHEAD. ) ;
#45 = PRODUCT_DEFINITION_SHAPE ( 'NONE', 'NONE',  #32 ) ;
#46 = AXIS2_PLACEMENT_3D ( 'NONE', #247, #237, #34 ) ;
#47 = LINE ( 'NONE', #139, #36 ) ;
#48 = EDGE_CURVE ( 'NONE', #120, #212, #235, .T. ) ;
#49 = EDGE_LOOP ( 'NONE', ( #16, #165 ) ) ;
#50 = CARTESIAN_POINT ( 'NONE',  ( 16.00000000000000000, 1.959434878635765131E-15, 0.000000000000000000 ) ) ;
#51 = CC_DESIGN_SECURITY_CLASSIFICATION ( #187, ( #242 ) ) ;
#52 = CYLINDRICAL_SURFACE ( 'NONE', #246, 16.00000000000000000 ) ;
#53 = FACE_BOUND ( 'NONE', #56, .T. ) ;
#54 = EDGE_CURVE ( 'NONE', #234, #13, #226, .T. ) ;
#55 = DIRECTION ( 'NONE',  ( -0.000000000000000000, -0.000000000000000000, -1.000000000000000000 ) ) ;
#56 = EDGE_LOOP ( 'NONE', ( #229, #14 ) ) ;
#57 = APPLICATION_PROTOCOL_DEFINITION ( 'international standard', 'config_control_design', 1994, #79 ) ;
#58 = EDGE_LOOP ( 'NONE', ( #90, #141, #11, #174 ) ) ;
#59 = CALENDAR_DATE ( 2023, 13, 2 ) ;
#60 = APPROVAL ( #126, 'NEURÈENÝ' ) ;
#61 = FACE_OUTER_BOUND ( 'NONE', #68, .T. ) ;
#62 = AXIS2_PLACEMENT_3D ( 'NONE', #236, #116, #144 ) ;
#63 = CC_DESIGN_DATE_AND_TIME_ASSIGNMENT ( #95, #217, ( #32 ) ) ;
#64 = CIRCLE ( 'NONE', #46, 12.50000000000000000 ) ;
#65 = CC_DESIGN_APPROVAL ( #60, ( #32 ) ) ;
#66 = DATE_TIME_ROLE ( 'classification_date' ) ;
#67 = EDGE_CURVE ( 'NONE', #120, #97, #119, .T. ) ;
#68 = EDGE_LOOP ( 'NONE', ( #251, #179 ) ) ;
#69 = DIRECTION ( 'NONE',  ( 0.000000000000000000, 0.000000000000000000, 1.000000000000000000 ) ) ;
#70 = CARTESIAN_POINT ( 'NONE',  ( 16.00000000000000000, 1.959434878635765131E-15, 10.00000000000000000 ) ) ;
#71 = CARTESIAN_POINT ( 'NONE',  ( -12.50000000000000000, 0.000000000000000000, 630.0000000000000000 ) ) ;
#72 = EDGE_CURVE ( 'NONE', #234, #156, #38, .T. ) ;
#73 = CARTESIAN_POINT ( 'NONE',  ( 0.000000000000000000, 0.000000000000000000, 10.00000000000000000 ) ) ;
#74 = ORIENTED_EDGE ( 'NONE', *, *, #83, .T. ) ;
#75 = DIRECTION ( 'NONE',  ( -0.000000000000000000, -0.000000000000000000, -1.000000000000000000 ) ) ;
#76 = ORIENTED_EDGE ( 'NONE', *, *, #191, .T. ) ;
#77 = DATE_AND_TIME ( #59, #178 ) ;
#78 = DIRECTION ( 'NONE',  ( 1.000000000000000000, 0.000000000000000000, 0.000000000000000000 ) ) ;
#79 = APPLICATION_CONTEXT ( 'configuration controlled 3d designs of mechanical parts and assemblies' ) ;
#80 = CC_DESIGN_PERSON_AND_ORGANIZATION_ASSIGNMENT ( #170, #224, ( #242 ) ) ;
#81 = APPROVAL_ROLE ( '' ) ;
#82 = CALENDAR_DATE ( 2023, 13, 2 ) ;
#83 = EDGE_CURVE ( 'NONE', #97, #93, #20, .T. ) ;
#84 = VECTOR ( 'NONE', #150, 1000.000000000000000 ) ;
#85 = DIRECTION ( 'NONE',  ( 1.000000000000000000, 0.000000000000000000, -0.000000000000000000 ) ) ;
#86 = ADVANCED_BREP_SHAPE_REPRESENTATION ( '51ab', ( #17, #62 ), #91 ) ;
#87 = APPROVAL_ROLE ( '' ) ;
#88 = APPROVAL_STATUS ( 'not_yet_approved' ) ;
#89 = COORDINATED_UNIVERSAL_TIME_OFFSET ( 1, 0, .AHEAD. ) ;
#90 = ORIENTED_EDGE ( 'NONE', *, *, #240, .F. ) ;
#91 =( GEOMETRIC_REPRESENTATION_CONTEXT ( 3 ) GLOBAL_UNCERTAINTY_ASSIGNED_CONTEXT ( ( #6 ) ) GLOBAL_UNIT_ASSIGNED_CONTEXT ( ( #33, #207, #118 ) ) REPRESENTATION_CONTEXT ( 'NONE', 'WORKASPACE' ) );
#92 = ORIENTED_EDGE ( 'NONE', *, *, #164, .T. ) ;
#93 = VERTEX_POINT ( 'NONE', #167 ) ;
#94 = DIRECTION ( 'NONE',  ( 0.000000000000000000, 0.000000000000000000, 1.000000000000000000 ) ) ;
#95 = DATE_AND_TIME ( #82, #27 ) ;
#96 = CC_DESIGN_APPROVAL ( #101, ( #242 ) ) ;
#97 = VERTEX_POINT ( 'NONE', #3 ) ;
#98 = APPROVAL_STATUS ( 'not_yet_approved' ) ;
#99 = CARTESIAN_POINT ( 'NONE',  ( 0.000000000000000000, 0.000000000000000000, 10.00000000000000000 ) ) ;
#100 = COORDINATED_UNIVERSAL_TIME_OFFSET ( 1, 0, .AHEAD. ) ;
#101 = APPROVAL ( #98, 'NEURÈENÝ' ) ;
#102 = CARTESIAN_POINT ( 'NONE',  ( 16.00000000000000000, 1.959434878635765131E-15, 10.00000000000000000 ) ) ;
#103 = AXIS2_PLACEMENT_3D ( 'NONE', #114, #192, #249 ) ;
#104 = AXIS2_PLACEMENT_3D ( 'NONE', #140, #75, #193 ) ;
#105 = CYLINDRICAL_SURFACE ( 'NONE', #104, 12.50000000000000000 ) ;
#106 = PERSON_AND_ORGANIZATION_ROLE ( 'classification_officer' ) ;
#107 = CARTESIAN_POINT ( 'NONE',  ( -12.50000000000000000, 0.000000000000000000, 630.0000000000000000 ) ) ;
#108 = ADVANCED_FACE ( 'NONE', ( #61 ), #202, .F. ) ;
#109 = PERSON_AND_ORGANIZATION_ROLE ( 'creator' ) ;
#110 = PERSON_AND_ORGANIZATION ( #252, #22 ) ;
#111 = APPROVAL_PERSON_ORGANIZATION ( #171, #5, #87 ) ;
#112 = CC_DESIGN_PERSON_AND_ORGANIZATION_ASSIGNMENT ( #1, #166, ( #32 ) ) ;
#113 = COORDINATED_UNIVERSAL_TIME_OFFSET ( 1, 0, .AHEAD. ) ;
#114 = CARTESIAN_POINT ( 'NONE',  ( 0.000000000000000000, 0.000000000000000000, 0.000000000000000000 ) ) ;
#115 = ORIENTED_EDGE ( 'NONE', *, *, #48, .F. ) ;
#116 = DIRECTION ( 'NONE',  ( 0.000000000000000000, 0.000000000000000000, 1.000000000000000000 ) ) ;
#117 = ORIENTED_EDGE ( 'NONE', *, *, #26, .T. ) ;
#118 =( NAMED_UNIT ( * ) SI_UNIT ( $, .STERADIAN. ) SOLID_ANGLE_UNIT ( ) );
#119 = CIRCLE ( 'NONE', #155, 16.00000000000000000 ) ;
#120 = VERTEX_POINT ( 'NONE', #102 ) ;
#121 = CIRCLE ( 'NONE', #204, 16.00000000000000000 ) ;
#122 = EDGE_LOOP ( 'NONE', ( #176, #177, #145, #37 ) ) ;
#123 = DIRECTION ( 'NONE',  ( -0.000000000000000000, -0.000000000000000000, -1.000000000000000000 ) ) ;
#124 = AXIS2_PLACEMENT_3D ( 'NONE', #39, #223, #85 ) ;
#125 = EDGE_CURVE ( 'NONE', #232, #156, #7, .T. ) ;
#126 = APPROVAL_STATUS ( 'not_yet_approved' ) ;
#127 = DATE_AND_TIME ( #153, #161 ) ;
#128 = DIRECTION ( 'NONE',  ( 0.000000000000000000, 0.000000000000000000, 1.000000000000000000 ) ) ;
#129 = DESIGN_CONTEXT ( 'detailed design', #188, 'design' ) ;
#130 = PRODUCT ( '51ab', '51ab', '', ( #198 ) ) ;
#131 = CALENDAR_DATE ( 2023, 13, 2 ) ;
#132 = ADVANCED_FACE ( 'NONE', ( #184 ), #43, .T. ) ;
#133 = EDGE_LOOP ( 'NONE', ( #115, #194, #74, #92 ) ) ;
#134 = VECTOR ( 'NONE', #123, 1000.000000000000000 ) ;
#135 = CARTESIAN_POINT ( 'NONE',  ( 12.50000000000000000, 1.530808498934191521E-15, 10.00000000000000000 ) ) ;
#136 = EDGE_LOOP ( 'NONE', ( #172, #76 ) ) ;
#137 = APPROVAL_PERSON_ORGANIZATION ( #197, #101, #81 ) ;
#138 = ORIENTED_EDGE ( 'NONE', *, *, #67, .F. ) ;
#139 = CARTESIAN_POINT ( 'NONE',  ( 12.50000000000000000, 1.530808498934191521E-15, 630.0000000000000000 ) ) ;
#140 = CARTESIAN_POINT ( 'NONE',  ( 0.000000000000000000, 0.000000000000000000, 630.0000000000000000 ) ) ;
#141 = ORIENTED_EDGE ( 'NONE', *, *, #54, .F. ) ;
#142 = CARTESIAN_POINT ( 'NONE',  ( -12.50000000000000000, 0.000000000000000000, 10.00000000000000000 ) ) ;
#143 = CC_DESIGN_PERSON_AND_ORGANIZATION_ASSIGNMENT ( #28, #106, ( #187 ) ) ;
#144 = DIRECTION ( 'NONE',  ( 1.000000000000000000, 0.000000000000000000, 0.000000000000000000 ) ) ;
#145 = ORIENTED_EDGE ( 'NONE', *, *, #125, .T. ) ;
#146 = APPROVAL_ROLE ( '' ) ;
#147 = CARTESIAN_POINT ( 'NONE',  ( 0.000000000000000000, 0.000000000000000000, 10.00000000000000000 ) ) ;
#148 = CARTESIAN_POINT ( 'NONE',  ( 0.000000000000000000, 0.000000000000000000, 10.00000000000000000 ) ) ;
#149 = PERSON_AND_ORGANIZATION ( #252, #22 ) ;
#150 = DIRECTION ( 'NONE',  ( -0.000000000000000000, -0.000000000000000000, -1.000000000000000000 ) ) ;
#151 = DIRECTION ( 'NONE',  ( 1.000000000000000000, 0.000000000000000000, 0.000000000000000000 ) ) ;
#152 = ADVANCED_FACE ( 'NONE', ( #23 ), #105, .T. ) ;
#153 = CALENDAR_DATE ( 2023, 13, 2 ) ;
#154 = CALENDAR_DATE ( 2023, 13, 2 ) ;
#155 = AXIS2_PLACEMENT_3D ( 'NONE', #147, #128, #78 ) ;
#156 = VERTEX_POINT ( 'NONE', #142 ) ;
#157 = ADVANCED_FACE ( 'NONE', ( #35 ), #238, .T. ) ;
#158 = ORIENTED_EDGE ( 'NONE', *, *, #83, .F. ) ;
#159 = AXIS2_PLACEMENT_3D ( 'NONE', #148, #218, #151 ) ;
#160 = CARTESIAN_POINT ( 'NONE',  ( 0.000000000000000000, 0.000000000000000000, 630.0000000000000000 ) ) ;
#161 = LOCAL_TIME ( 8, 31, 28.00000000000000000, #89 ) ;
#162 = FACE_OUTER_BOUND ( 'NONE', #214, .T. ) ;
#163 = CARTESIAN_POINT ( 'NONE',  ( 0.000000000000000000, 0.000000000000000000, 10.00000000000000000 ) ) ;
#164 = EDGE_CURVE ( 'NONE', #93, #212, #121, .T. ) ;
#165 = ORIENTED_EDGE ( 'NONE', *, *, #67, .T. ) ;
#166 = PERSON_AND_ORGANIZATION_ROLE ( 'creator' ) ;
#167 = CARTESIAN_POINT ( 'NONE',  ( -16.00000000000000000, 0.000000000000000000, 0.000000000000000000 ) ) ;
#168 = VECTOR ( 'NONE', #186, 1000.000000000000000 ) ;
#169 = LOCAL_TIME ( 8, 31, 28.00000000000000000, #113 ) ;
#170 = PERSON_AND_ORGANIZATION ( #252, #22 ) ;
#171 = PERSON_AND_ORGANIZATION ( #252, #22 ) ;
#172 = ORIENTED_EDGE ( 'NONE', *, *, #54, .T. ) ;
#173 = DIRECTION ( 'NONE',  ( -0.000000000000000000, -0.000000000000000000, -1.000000000000000000 ) ) ;
#174 = ORIENTED_EDGE ( 'NONE', *, *, #15, .T. ) ;
#175 = CARTESIAN_POINT ( 'NONE',  ( 0.000000000000000000, 0.000000000000000000, 630.0000000000000000 ) ) ;
#176 = ORIENTED_EDGE ( 'NONE', *, *, #191, .F. ) ;
#177 = ORIENTED_EDGE ( 'NONE', *, *, #240, .T. ) ;
#178 = LOCAL_TIME ( 8, 31, 28.00000000000000000, #19 ) ;
#179 = ORIENTED_EDGE ( 'NONE', *, *, #26, .F. ) ;
#180 = CYLINDRICAL_SURFACE ( 'NONE', #185, 12.50000000000000000 ) ;
#181 = DIRECTION ( 'NONE',  ( 0.000000000000000000, 0.000000000000000000, 1.000000000000000000 ) ) ;
#182 = APPROVAL_DATE_TIME ( #77, #60 ) ;
#183 = CIRCLE ( 'NONE', #205, 16.00000000000000000 ) ;
#184 = FACE_OUTER_BOUND ( 'NONE', #136, .T. ) ;
#185 = AXIS2_PLACEMENT_3D ( 'NONE', #175, #250, #233 ) ;
#186 = DIRECTION ( 'NONE',  ( -0.000000000000000000, -0.000000000000000000, -1.000000000000000000 ) ) ;
#187 = SECURITY_CLASSIFICATION ( '', '', #8 ) ;
#188 = APPLICATION_CONTEXT ( 'configuration controlled 3d designs of mechanical parts and assemblies' ) ;
#189 = AXIS2_PLACEMENT_3D ( 'NONE', #73, #173, #195 ) ;
#190 = DATE_AND_TIME ( #131, #4 ) ;
#191 = EDGE_CURVE ( 'NONE', #13, #234, #206, .T. ) ;
#192 = DIRECTION ( 'NONE',  ( 0.000000000000000000, 0.000000000000000000, 1.000000000000000000 ) ) ;
#193 = DIRECTION ( 'NONE',  ( -1.000000000000000000, 0.000000000000000000, 0.000000000000000000 ) ) ;
#194 = ORIENTED_EDGE ( 'NONE', *, *, #9, .F. ) ;
#195 = DIRECTION ( 'NONE',  ( -1.000000000000000000, 0.000000000000000000, 0.000000000000000000 ) ) ;
#196 = AXIS2_PLACEMENT_3D ( 'NONE', #163, #253, #29 ) ;
#197 = PERSON_AND_ORGANIZATION ( #252, #22 ) ;
#198 = MECHANICAL_CONTEXT ( 'NONE', #79, 'mechanical' ) ;
#199 = DIRECTION ( 'NONE',  ( 0.000000000000000000, 0.000000000000000000, 1.000000000000000000 ) ) ;
#200 = CIRCLE ( 'NONE', #103, 16.00000000000000000 ) ;
#201 = CARTESIAN_POINT ( 'NONE',  ( 0.000000000000000000, 0.000000000000000000, 630.0000000000000000 ) ) ;
#202 = PLANE ( 'NONE',  #124 ) ;
#203 = CLOSED_SHELL ( 'NONE', ( #152, #231, #157, #21, #108, #244, #132 ) ) ;
#204 = AXIS2_PLACEMENT_3D ( 'NONE', #248, #69, #18 ) ;
#205 = AXIS2_PLACEMENT_3D ( 'NONE', #30, #94, #208 ) ;
#206 = CIRCLE ( 'NONE', #215, 12.50000000000000000 ) ;
#207 =( NAMED_UNIT ( * ) PLANE_ANGLE_UNIT ( ) SI_UNIT ( $, .RADIAN. ) );
#208 = DIRECTION ( 'NONE',  ( 1.000000000000000000, 0.000000000000000000, 0.000000000000000000 ) ) ;
#209 = DIRECTION ( 'NONE',  ( -0.000000000000000000, -0.000000000000000000, -1.000000000000000000 ) ) ;
#210 = ORIENTED_EDGE ( 'NONE', *, *, #48, .T. ) ;
#211 = FACE_OUTER_BOUND ( 'NONE', #58, .T. ) ;
#212 = VERTEX_POINT ( 'NONE', #50 ) ;
#213 = DIRECTION ( 'NONE',  ( 1.000000000000000000, 0.000000000000000000, 0.000000000000000000 ) ) ;
#214 = EDGE_LOOP ( 'NONE', ( #138, #210, #117, #158 ) ) ;
#215 = AXIS2_PLACEMENT_3D ( 'NONE', #160, #230, #213 ) ;
#216 = PRODUCT_RELATED_PRODUCT_CATEGORY ( 'detail', '', ( #130 ) ) ;
#217 = DATE_TIME_ROLE ( 'creation_date' ) ;
#218 = DIRECTION ( 'NONE',  ( 0.000000000000000000, 0.000000000000000000, 1.000000000000000000 ) ) ;
#219 = PERSON_AND_ORGANIZATION_ROLE ( 'design_owner' ) ;
#220 = CARTESIAN_POINT ( 'NONE',  ( -16.00000000000000000, 0.000000000000000000, 10.00000000000000000 ) ) ;
#221 = CC_DESIGN_APPROVAL ( #5, ( #187 ) ) ;
#222 = CC_DESIGN_PERSON_AND_ORGANIZATION_ASSIGNMENT ( #149, #219, ( #130 ) ) ;
#223 = DIRECTION ( 'NONE',  ( 0.000000000000000000, 0.000000000000000000, 1.000000000000000000 ) ) ;
#224 = PERSON_AND_ORGANIZATION_ROLE ( 'design_supplier' ) ;
#225 = SHAPE_DEFINITION_REPRESENTATION ( #45, #86 ) ;
#226 = CIRCLE ( 'NONE', #241, 12.50000000000000000 ) ;
#227 = CC_DESIGN_DATE_AND_TIME_ASSIGNMENT ( #190, #66, ( #187 ) ) ;
#228 = APPROVAL_PERSON_ORGANIZATION ( #239, #60, #146 ) ;
#229 = ORIENTED_EDGE ( 'NONE', *, *, #15, .F. ) ;
#230 = DIRECTION ( 'NONE',  ( 0.000000000000000000, 0.000000000000000000, 1.000000000000000000 ) ) ;
#231 = ADVANCED_FACE ( 'NONE', ( #162 ), #52, .T. ) ;
#232 = VERTEX_POINT ( 'NONE', #135 ) ;
#233 = DIRECTION ( 'NONE',  ( -1.000000000000000000, 0.000000000000000000, 0.000000000000000000 ) ) ;
#234 = VERTEX_POINT ( 'NONE', #71 ) ;
#235 = LINE ( 'NONE', #70, #84 ) ;
#236 = CARTESIAN_POINT ( 'NONE',  ( 0.000000000000000000, 0.000000000000000000, 0.000000000000000000 ) ) ;
#237 = DIRECTION ( 'NONE',  ( 0.000000000000000000, 0.000000000000000000, 1.000000000000000000 ) ) ;
#238 = CYLINDRICAL_SURFACE ( 'NONE', #189, 16.00000000000000000 ) ;
#239 = PERSON_AND_ORGANIZATION ( #252, #22 ) ;
#240 = EDGE_CURVE ( 'NONE', #13, #232, #47, .T. ) ;
#241 = AXIS2_PLACEMENT_3D ( 'NONE', #42, #199, #25 ) ;
#242 = PRODUCT_DEFINITION_FORMATION_WITH_SPECIFIED_SOURCE ( 'LIBOVOLNÝ', '', #130, .NOT_KNOWN. ) ;
#243 = DATE_AND_TIME ( #154, #169 ) ;
#244 = ADVANCED_FACE ( 'NONE', ( #211 ), #180, .T. ) ;
#245 = APPROVAL_DATE_TIME ( #243, #5 ) ;
#246 = AXIS2_PLACEMENT_3D ( 'NONE', #99, #55, #254 ) ;
#247 = CARTESIAN_POINT ( 'NONE',  ( 0.000000000000000000, 0.000000000000000000, 10.00000000000000000 ) ) ;
#248 = CARTESIAN_POINT ( 'NONE',  ( 0.000000000000000000, 0.000000000000000000, 0.000000000000000000 ) ) ;
#249 = DIRECTION ( 'NONE',  ( 1.000000000000000000, 0.000000000000000000, 0.000000000000000000 ) ) ;
#250 = DIRECTION ( 'NONE',  ( -0.000000000000000000, -0.000000000000000000, -1.000000000000000000 ) ) ;
#251 = ORIENTED_EDGE ( 'NONE', *, *, #164, .F. ) ;
#252 = PERSON ( 'NEURÈENÝ', 'NEURÈENÝ', 'NEURÈENÝ', ('NEURÈENÝ'), ('NEURÈENÝ'), ('NEURÈENÝ') ) ;
#253 = DIRECTION ( 'NONE',  ( 0.000000000000000000, 0.000000000000000000, 1.000000000000000000 ) ) ;
#254 = DIRECTION ( 'NONE',  ( -1.000000000000000000, 0.000000000000000000, 0.000000000000000000 ) ) ;
#255 = PLANE ( 'NONE',  #196 ) ;
ENDSEC;
END-ISO-10303-21;
