ISO-10303-21;
HEADER;
FILE_DESCRIPTION (( 'STEP AP203' ),
    '1' );
FILE_NAME ('d484.STEP',
    '2022-06-20T09:34:48',
    ( '' ),
    ( '' ),
    'SwSTEP 2.0',
    'SolidWorks 2019',
    '' );
FILE_SCHEMA (( 'CONFIG_CONTROL_DESIGN' ));
ENDSEC;

DATA;
#1 = DIRECTION ( 'NONE',  ( -0.000000000000000000, -0.000000000000000000, -1.000000000000000000 ) ) ;
#2 = AXIS2_PLACEMENT_3D ( 'NONE', #158, #14, #43 ) ;
#3 = FACE_OUTER_BOUND ( 'NONE', #214, .T. ) ;
#4 = ADVANCED_FACE ( 'NONE', ( #57 ), #261, .F. ) ;
#5 = APPROVAL_STATUS ( 'not_yet_approved' ) ;
#6 = DIRECTION ( 'NONE',  ( 0.000000000000000000, 0.000000000000000000, 1.000000000000000000 ) ) ;
#7 = LINE ( 'NONE', #246, #68 ) ;
#8 = CC_DESIGN_APPROVAL ( #192, ( #119 ) ) ;
#9 = FACE_OUTER_BOUND ( 'NONE', #108, .T. ) ;
#10 = EDGE_CURVE ( 'NONE', #48, #306, #7, .T. ) ;
#11 =( LENGTH_UNIT ( ) NAMED_UNIT ( * ) SI_UNIT ( .MILLI., .METRE. ) );
#12 = DIRECTION ( 'NONE',  ( 1.000000000000000000, 0.000000000000000000, 0.000000000000000000 ) ) ;
#13 = CYLINDRICAL_SURFACE ( 'NONE', #144, 8.000000000000000000 ) ;
#14 = DIRECTION ( 'NONE',  ( -0.000000000000000000, -0.000000000000000000, -1.000000000000000000 ) ) ;
#15 = APPROVAL_ROLE ( '' ) ;
#16 = DIRECTION ( 'NONE',  ( 1.224646799147353207E-16, 1.000000000000000000, -0.000000000000000000 ) ) ;
#17 = ADVANCED_FACE ( 'NONE', ( #3 ), #96, .T. ) ;
#18 = EDGE_LOOP ( 'NONE', ( #87, #71, #163, #140 ) ) ;
#19 = AXIS2_PLACEMENT_3D ( 'NONE', #147, #241, #28 ) ;
#20 = ORIENTED_EDGE ( 'NONE', *, *, #33, .T. ) ;
#21 = EDGE_CURVE ( 'NONE', #143, #283, #194, .T. ) ;
#22 = ORIENTED_EDGE ( 'NONE', *, *, #170, .T. ) ;
#23 = ORIENTED_EDGE ( 'NONE', *, *, #10, .T. ) ;
#24 = EDGE_CURVE ( 'NONE', #150, #305, #304, .T. ) ;
#25 = DIRECTION ( 'NONE',  ( -0.000000000000000000, -0.000000000000000000, -1.000000000000000000 ) ) ;
#26 = DIRECTION ( 'NONE',  ( 1.000000000000000000, 0.000000000000000000, -0.000000000000000000 ) ) ;
#27 = PERSON_AND_ORGANIZATION ( #135, #102 ) ;
#28 = DIRECTION ( 'NONE',  ( 1.000000000000000000, 0.000000000000000000, 0.000000000000000000 ) ) ;
#29 = CC_DESIGN_APPROVAL ( #123, ( #42 ) ) ;
#30 = CARTESIAN_POINT ( 'NONE',  ( 0.000000000000000000, 0.000000000000000000, 5.000000000000000000 ) ) ;
#31 = CALENDAR_DATE ( 2022, 20, 6 ) ;
#32 = DIRECTION ( 'NONE',  ( -0.000000000000000000, -0.000000000000000000, -1.000000000000000000 ) ) ;
#33 = EDGE_CURVE ( 'NONE', #143, #48, #172, .T. ) ;
#34 = AXIS2_PLACEMENT_3D ( 'NONE', #60, #32, #122 ) ;
#35 = APPLICATION_PROTOCOL_DEFINITION ( 'international standard', 'config_control_design', 1994, #262 ) ;
#36 =( NAMED_UNIT ( * ) PLANE_ANGLE_UNIT ( ) SI_UNIT ( $, .RADIAN. ) );
#37 = PERSON_AND_ORGANIZATION_ROLE ( 'design_supplier' ) ;
#38 = ADVANCED_BREP_SHAPE_REPRESENTATION ( 'd484', ( #67, #178 ), #287 ) ;
#39 = COORDINATED_UNIVERSAL_TIME_OFFSET ( 1, 0, .AHEAD. ) ;
#40 = AXIS2_PLACEMENT_3D ( 'NONE', #146, #148, #290 ) ;
#41 = FACE_OUTER_BOUND ( 'NONE', #236, .T. ) ;
#42 = SECURITY_CLASSIFICATION ( '', '', #104 ) ;
#43 = DIRECTION ( 'NONE',  ( -1.000000000000000000, 0.000000000000000000, 0.000000000000000000 ) ) ;
#44 = ORIENTED_EDGE ( 'NONE', *, *, #159, .T. ) ;
#45 = CARTESIAN_POINT ( 'NONE',  ( 0.000000000000000000, 0.000000000000000000, 5.199999999999982414 ) ) ;
#46 = APPROVAL_PERSON_ORGANIZATION ( #193, #279, #56 ) ;
#47 = ORIENTED_EDGE ( 'NONE', *, *, #170, .F. ) ;
#48 = VERTEX_POINT ( 'NONE', #243 ) ;
#49 = AXIS2_PLACEMENT_3D ( 'NONE', #30, #25, #195 ) ;
#50 = CARTESIAN_POINT ( 'NONE',  ( 8.000000000000000000, 9.797174393178825657E-16, 5.000000000000000000 ) ) ;
#51 = AXIS2_PLACEMENT_3D ( 'NONE', #288, #54, #174 ) ;
#52 = DIRECTION ( 'NONE',  ( 0.000000000000000000, 0.000000000000000000, 1.000000000000000000 ) ) ;
#53 = ADVANCED_FACE ( 'NONE', ( #120 ), #78, .T. ) ;
#54 = DIRECTION ( 'NONE',  ( 0.000000000000000000, 0.000000000000000000, 1.000000000000000000 ) ) ;
#55 = VECTOR ( 'NONE', #307, 1000.000000000000000 ) ;
#56 = APPROVAL_ROLE ( '' ) ;
#57 = FACE_OUTER_BOUND ( 'NONE', #186, .T. ) ;
#58 = APPROVAL_PERSON_ORGANIZATION ( #130, #192, #269 ) ;
#59 = DIRECTION ( 'NONE',  ( 0.000000000000000000, 0.000000000000000000, 1.000000000000000000 ) ) ;
#60 = CARTESIAN_POINT ( 'NONE',  ( 0.000000000000000000, 0.000000000000000000, 5.000000000000000000 ) ) ;
#61 = COORDINATED_UNIVERSAL_TIME_OFFSET ( 1, 0, .AHEAD. ) ;
#62 = DIRECTION ( 'NONE',  ( 0.000000000000000000, 0.000000000000000000, 1.000000000000000000 ) ) ;
#63 = DIRECTION ( 'NONE',  ( 0.000000000000000000, 0.000000000000000000, 1.000000000000000000 ) ) ;
#64 = DIRECTION ( 'NONE',  ( -0.000000000000000000, -0.000000000000000000, -1.000000000000000000 ) ) ;
#65 = APPROVAL_STATUS ( 'not_yet_approved' ) ;
#66 = ADVANCED_FACE ( 'NONE', ( #259, #222 ), #77, .T. ) ;
#67 = MANIFOLD_SOLID_BREP ( 'Zaoblit1', #184 ) ;
#68 = VECTOR ( 'NONE', #220, 1000.000000000000000 ) ;
#69 = CC_DESIGN_APPROVAL ( #279, ( #99 ) ) ;
#70 = CC_DESIGN_PERSON_AND_ORGANIZATION_ASSIGNMENT ( #289, #175, ( #156 ) ) ;
#71 = ORIENTED_EDGE ( 'NONE', *, *, #234, .T. ) ;
#72 = CIRCLE ( 'NONE', #51, 5.500000000000000000 ) ;
#73 = ORIENTED_EDGE ( 'NONE', *, *, #112, .T. ) ;
#74 = EDGE_LOOP ( 'NONE', ( #233, #142 ) ) ;
#75 = ORIENTED_EDGE ( 'NONE', *, *, #21, .F. ) ;
#76 = AXIS2_PLACEMENT_3D ( 'NONE', #45, #59, #273 ) ;
#77 = PLANE ( 'NONE',  #291 ) ;
#78 = CYLINDRICAL_SURFACE ( 'NONE', #235, 5.500000000000000000 ) ;
#79 = CARTESIAN_POINT ( 'NONE',  ( 0.000000000000000000, 0.000000000000000000, 635.0000000000000000 ) ) ;
#80 = CARTESIAN_POINT ( 'NONE',  ( 0.000000000000000000, 0.000000000000000000, 5.000000000000000000 ) ) ;
#81 = DIRECTION ( 'NONE',  ( 0.000000000000000000, 0.000000000000000000, 1.000000000000000000 ) ) ;
#82 = EDGE_CURVE ( 'NONE', #197, #208, #205, .T. ) ;
#83 = DATE_AND_TIME ( #149, #113 ) ;
#84 = PERSON_AND_ORGANIZATION ( #135, #102 ) ;
#85 = DIRECTION ( 'NONE',  ( 1.000000000000000000, 0.000000000000000000, 0.000000000000000000 ) ) ;
#86 = FACE_OUTER_BOUND ( 'NONE', #256, .T. ) ;
#87 = ORIENTED_EDGE ( 'NONE', *, *, #160, .F. ) ;
#88 = DATE_AND_TIME ( #157, #229 ) ;
#89 = ORIENTED_EDGE ( 'NONE', *, *, #217, .T. ) ;
#90 = AXIS2_PLACEMENT_3D ( 'NONE', #168, #6, #286 ) ;
#91 = CC_DESIGN_SECURITY_CLASSIFICATION ( #42, ( #119 ) ) ;
#92 = EDGE_LOOP ( 'NONE', ( #280, #20 ) ) ;
#93 = CARTESIAN_POINT ( 'NONE',  ( 5.500000000000000000, 6.735557395310442023E-16, 635.0000000000000000 ) ) ;
#94 = CIRCLE ( 'NONE', #109, 5.500000000000000000 ) ;
#95 = DIRECTION ( 'NONE',  ( 1.000000000000000000, 0.000000000000000000, 0.000000000000000000 ) ) ;
#96 = CYLINDRICAL_SURFACE ( 'NONE', #34, 8.000000000000000000 ) ;
#97 = CARTESIAN_POINT ( 'NONE',  ( 5.500000000000000000, 6.735557395310442023E-16, 635.0000000000000000 ) ) ;
#98 = AXIS2_PLACEMENT_3D ( 'NONE', #117, #263, #95 ) ;
#99 = PRODUCT_DEFINITION ( 'NEZNÁMÝ', '', #119, #211 ) ;
#100 = COORDINATED_UNIVERSAL_TIME_OFFSET ( 1, 0, .AHEAD. ) ;
#101 = DIRECTION ( 'NONE',  ( 0.000000000000000000, 0.000000000000000000, 1.000000000000000000 ) ) ;
#102 = ORGANIZATION ( 'NEURÈENÝ', 'NEURÈENÝ', '' ) ;
#103 = CARTESIAN_POINT ( 'NONE',  ( 0.000000000000000000, 0.000000000000000000, 0.000000000000000000 ) ) ;
#104 = SECURITY_CLASSIFICATION_LEVEL ( 'unclassified' ) ;
#105 = DIRECTION ( 'NONE',  ( 1.000000000000000000, 0.000000000000000000, 0.000000000000000000 ) ) ;
#106 = CIRCLE ( 'NONE', #231, 8.000000000000000000 ) ;
#107 = DIRECTION ( 'NONE',  ( 0.000000000000000000, 0.000000000000000000, 1.000000000000000000 ) ) ;
#108 = EDGE_LOOP ( 'NONE', ( #302, #210, #89, #281 ) ) ;
#109 = AXIS2_PLACEMENT_3D ( 'NONE', #275, #63, #105 ) ;
#110 = EDGE_LOOP ( 'NONE', ( #44, #125 ) ) ;
#111 = ORIENTED_EDGE ( 'NONE', *, *, #112, .F. ) ;
#112 = EDGE_CURVE ( 'NONE', #188, #208, #169, .T. ) ;
#113 = LOCAL_TIME ( 11, 34, 48.00000000000000000, #121 ) ;
#114 = ORIENTED_EDGE ( 'NONE', *, *, #82, .F. ) ;
#115 = ADVANCED_FACE ( 'NONE', ( #171 ), #224, .T. ) ;
#116 = CARTESIAN_POINT ( 'NONE',  ( 0.000000000000000000, 0.000000000000000000, 635.0000000000000000 ) ) ;
#117 = CARTESIAN_POINT ( 'NONE',  ( 0.000000000000000000, 0.000000000000000000, 0.000000000000000000 ) ) ;
#118 = DATE_AND_TIME ( #249, #162 ) ;
#119 = PRODUCT_DEFINITION_FORMATION_WITH_SPECIFIED_SOURCE ( 'LIBOVOLNÝ', '', #156, .NOT_KNOWN. ) ;
#120 = FACE_OUTER_BOUND ( 'NONE', #187, .T. ) ;
#121 = COORDINATED_UNIVERSAL_TIME_OFFSET ( 1, 0, .AHEAD. ) ;
#122 = DIRECTION ( 'NONE',  ( -1.000000000000000000, 0.000000000000000000, 0.000000000000000000 ) ) ;
#123 = APPROVAL ( #65, 'NEURÈENÝ' ) ;
#124 = PERSON_AND_ORGANIZATION_ROLE ( 'classification_officer' ) ;
#125 = ORIENTED_EDGE ( 'NONE', *, *, #24, .T. ) ;
#126 = VECTOR ( 'NONE', #1, 1000.000000000000000 ) ;
#127 = DATE_AND_TIME ( #31, #296 ) ;
#128 = DIRECTION ( 'NONE',  ( 1.000000000000000000, 0.000000000000000000, 0.000000000000000000 ) ) ;
#129 = AXIS2_PLACEMENT_3D ( 'NONE', #204, #62, #271 ) ;
#130 = PERSON_AND_ORGANIZATION ( #135, #102 ) ;
#131 = DIRECTION ( 'NONE',  ( 0.000000000000000000, 0.000000000000000000, -1.000000000000000000 ) ) ;
#132 = EDGE_CURVE ( 'NONE', #139, #197, #294, .T. ) ;
#133 = APPLICATION_CONTEXT ( 'configuration controlled 3d designs of mechanical parts and assemblies' ) ;
#134 = CARTESIAN_POINT ( 'NONE',  ( 8.000000000000000000, 9.797174393178825657E-16, 0.000000000000000000 ) ) ;
#135 = PERSON ( 'NEURÈENÝ', 'NEURÈENÝ', 'NEURÈENÝ', ('NEURÈENÝ'), ('NEURÈENÝ'), ('NEURÈENÝ') ) ;
#136 = DIRECTION ( 'NONE',  ( 0.000000000000000000, 0.000000000000000000, 1.000000000000000000 ) ) ;
#137 =( NAMED_UNIT ( * ) SI_UNIT ( $, .STERADIAN. ) SOLID_ANGLE_UNIT ( ) );
#138 = ORIENTED_EDGE ( 'NONE', *, *, #132, .F. ) ;
#139 = VERTEX_POINT ( 'NONE', #215 ) ;
#140 = ORIENTED_EDGE ( 'NONE', *, *, #217, .F. ) ;
#141 = APPLICATION_PROTOCOL_DEFINITION ( 'international standard', 'config_control_design', 1994, #133 ) ;
#142 = ORIENTED_EDGE ( 'NONE', *, *, #254, .T. ) ;
#143 = VERTEX_POINT ( 'NONE', #93 ) ;
#144 = AXIS2_PLACEMENT_3D ( 'NONE', #200, #64, #277 ) ;
#145 = ORIENTED_EDGE ( 'NONE', *, *, #160, .T. ) ;
#146 = CARTESIAN_POINT ( 'NONE',  ( 0.000000000000000000, 0.000000000000000000, 635.0000000000000000 ) ) ;
#147 = CARTESIAN_POINT ( 'NONE',  ( 0.000000000000000000, 0.000000000000000000, 5.199999999999982414 ) ) ;
#148 = DIRECTION ( 'NONE',  ( 0.000000000000000000, 0.000000000000000000, 1.000000000000000000 ) ) ;
#149 = CALENDAR_DATE ( 2022, 20, 6 ) ;
#150 = VERTEX_POINT ( 'NONE', #267 ) ;
#151 = COORDINATED_UNIVERSAL_TIME_OFFSET ( 1, 0, .AHEAD. ) ;
#152 = CARTESIAN_POINT ( 'NONE',  ( -8.000000000000000000, 0.000000000000000000, 0.000000000000000000 ) ) ;
#153 = PERSON_AND_ORGANIZATION ( #135, #102 ) ;
#154 = DIRECTION ( 'NONE',  ( 0.000000000000000000, 0.000000000000000000, 1.000000000000000000 ) ) ;
#155 = AXIS2_PLACEMENT_3D ( 'NONE', #80, #190, #191 ) ;
#156 = PRODUCT ( 'd484', 'd484', '', ( #219 ) ) ;
#157 = CALENDAR_DATE ( 2022, 20, 6 ) ;
#158 = CARTESIAN_POINT ( 'NONE',  ( 0.000000000000000000, 0.000000000000000000, 635.0000000000000000 ) ) ;
#159 = EDGE_CURVE ( 'NONE', #305, #150, #285, .T. ) ;
#160 = EDGE_CURVE ( 'NONE', #306, #283, #72, .T. ) ;
#161 = ORIENTED_EDGE ( 'NONE', *, *, #226, .F. ) ;
#162 = LOCAL_TIME ( 11, 34, 48.00000000000000000, #100 ) ;
#163 = ORIENTED_EDGE ( 'NONE', *, *, #159, .F. ) ;
#164 = ORIENTED_EDGE ( 'NONE', *, *, #21, .T. ) ;
#165 = DIRECTION ( 'NONE',  ( -0.000000000000000000, -0.000000000000000000, -1.000000000000000000 ) ) ;
#166 = EDGE_CURVE ( 'NONE', #283, #306, #278, .T. ) ;
#167 = CIRCLE ( 'NONE', #212, 8.000000000000000000 ) ;
#168 = CARTESIAN_POINT ( 'NONE',  ( 0.000000000000000000, 0.000000000000000000, 0.000000000000000000 ) ) ;
#169 = LINE ( 'NONE', #216, #126 ) ;
#170 = EDGE_CURVE ( 'NONE', #208, #197, #282, .T. ) ;
#171 = FACE_OUTER_BOUND ( 'NONE', #92, .T. ) ;
#172 = CIRCLE ( 'NONE', #40, 5.500000000000000000 ) ;
#173 = TOROIDAL_SURFACE ( 'NONE', #76, 5.699999999999999289, 0.2000000000000000111 ) ;
#174 = DIRECTION ( 'NONE',  ( 1.000000000000000000, 0.000000000000000000, 0.000000000000000000 ) ) ;
#175 = PERSON_AND_ORGANIZATION_ROLE ( 'design_owner' ) ;
#176 = ADVANCED_FACE ( 'NONE', ( #177 ), #260, .F. ) ;
#177 = FACE_OUTER_BOUND ( 'NONE', #18, .T. ) ;
#178 = AXIS2_PLACEMENT_3D ( 'NONE', #103, #81, #12 ) ;
#179 = CARTESIAN_POINT ( 'NONE',  ( 5.699999999999999289, 0.000000000000000000, 5.199999999999982414 ) ) ;
#180 = CARTESIAN_POINT ( 'NONE',  ( 5.699999999999999289, 0.000000000000000000, 4.999999999999991118 ) ) ;
#181 = DIRECTION ( 'NONE',  ( 1.000000000000000000, 0.000000000000000000, 0.000000000000000000 ) ) ;
#182 = PRODUCT_DEFINITION_SHAPE ( 'NONE', 'NONE',  #99 ) ;
#183 = CC_DESIGN_PERSON_AND_ORGANIZATION_ASSIGNMENT ( #242, #223, ( #99 ) ) ;
#184 = CLOSED_SHELL ( 'NONE', ( #176, #213, #258, #17, #66, #4, #53, #115, #272 ) ) ;
#185 = APPROVAL_PERSON_ORGANIZATION ( #227, #123, #15 ) ;
#186 = EDGE_LOOP ( 'NONE', ( #47, #114 ) ) ;
#187 = EDGE_LOOP ( 'NONE', ( #75, #232, #23, #145 ) ) ;
#188 = VERTEX_POINT ( 'NONE', #250 ) ;
#189 = ORIENTED_EDGE ( 'NONE', *, *, #254, .F. ) ;
#190 = DIRECTION ( 'NONE',  ( -0.000000000000000000, -0.000000000000000000, -1.000000000000000000 ) ) ;
#191 = DIRECTION ( 'NONE',  ( 1.000000000000000000, 0.000000000000000000, 0.000000000000000000 ) ) ;
#192 = APPROVAL ( #221, 'NEURÈENÝ' ) ;
#193 = PERSON_AND_ORGANIZATION ( #135, #102 ) ;
#194 = LINE ( 'NONE', #97, #55 ) ;
#195 = DIRECTION ( 'NONE',  ( 1.000000000000000000, 0.000000000000000000, 0.000000000000000000 ) ) ;
#196 = DATE_TIME_ROLE ( 'classification_date' ) ;
#197 = VERTEX_POINT ( 'NONE', #134 ) ;
#198 = APPROVAL_DATE_TIME ( #83, #279 ) ;
#199 = PERSON_AND_ORGANIZATION_ROLE ( 'creator' ) ;
#200 = CARTESIAN_POINT ( 'NONE',  ( 0.000000000000000000, 0.000000000000000000, 5.000000000000000000 ) ) ;
#201 = SHAPE_DEFINITION_REPRESENTATION ( #182, #38 ) ;
#202 = CC_DESIGN_PERSON_AND_ORGANIZATION_ASSIGNMENT ( #27, #37, ( #119 ) ) ;
#203 = DIRECTION ( 'NONE',  ( -1.000000000000000000, 1.224646799147353454E-16, 0.000000000000000000 ) ) ;
#204 = CARTESIAN_POINT ( 'NONE',  ( 0.000000000000000000, 0.000000000000000000, 5.199999999999982414 ) ) ;
#205 = CIRCLE ( 'NONE', #98, 8.000000000000000000 ) ;
#206 = ORIENTED_EDGE ( 'NONE', *, *, #132, .T. ) ;
#207 = CIRCLE ( 'NONE', #237, 0.1999999999999996503 ) ;
#208 = VERTEX_POINT ( 'NONE', #152 ) ;
#209 = ORIENTED_EDGE ( 'NONE', *, *, #82, .T. ) ;
#210 = ORIENTED_EDGE ( 'NONE', *, *, #166, .F. ) ;
#211 = DESIGN_CONTEXT ( 'detailed design', #262, 'design' ) ;
#212 = AXIS2_PLACEMENT_3D ( 'NONE', #252, #136, #181 ) ;
#213 = ADVANCED_FACE ( 'NONE', ( #41 ), #253, .T. ) ;
#214 = EDGE_LOOP ( 'NONE', ( #138, #161, #73, #22 ) ) ;
#215 = CARTESIAN_POINT ( 'NONE',  ( 8.000000000000000000, 9.797174393178825657E-16, 5.000000000000000000 ) ) ;
#216 = CARTESIAN_POINT ( 'NONE',  ( -8.000000000000000000, 0.000000000000000000, 5.000000000000000000 ) ) ;
#217 = EDGE_CURVE ( 'NONE', #283, #305, #266, .T. ) ;
#218 = LOCAL_TIME ( 11, 34, 48.00000000000000000, #61 ) ;
#219 = MECHANICAL_CONTEXT ( 'NONE', #133, 'mechanical' ) ;
#220 = DIRECTION ( 'NONE',  ( -0.000000000000000000, -0.000000000000000000, -1.000000000000000000 ) ) ;
#221 = APPROVAL_STATUS ( 'not_yet_approved' ) ;
#222 = FACE_OUTER_BOUND ( 'NONE', #74, .T. ) ;
#223 = PERSON_AND_ORGANIZATION_ROLE ( 'creator' ) ;
#224 = PLANE ( 'NONE',  #299 ) ;
#225 = AXIS2_PLACEMENT_3D ( 'NONE', #248, #107, #85 ) ;
#226 = EDGE_CURVE ( 'NONE', #188, #139, #167, .T. ) ;
#227 = PERSON_AND_ORGANIZATION ( #135, #102 ) ;
#228 = CARTESIAN_POINT ( 'NONE',  ( -5.699999999999999289, 6.980486755139912122E-16, 5.199999999999982414 ) ) ;
#229 = LOCAL_TIME ( 11, 34, 48.00000000000000000, #39 ) ;
#230 = ORIENTED_EDGE ( 'NONE', *, *, #10, .F. ) ;
#231 = AXIS2_PLACEMENT_3D ( 'NONE', #297, #154, #128 ) ;
#232 = ORIENTED_EDGE ( 'NONE', *, *, #292, .F. ) ;
#233 = ORIENTED_EDGE ( 'NONE', *, *, #226, .T. ) ;
#234 = EDGE_CURVE ( 'NONE', #306, #150, #207, .T. ) ;
#235 = AXIS2_PLACEMENT_3D ( 'NONE', #79, #165, #265 ) ;
#236 = EDGE_LOOP ( 'NONE', ( #257, #164, #284, #230 ) ) ;
#237 = AXIS2_PLACEMENT_3D ( 'NONE', #228, #16, #203 ) ;
#238 = DIRECTION ( 'NONE',  ( 1.000000000000000000, 0.000000000000000000, -0.000000000000000000 ) ) ;
#239 = PRODUCT_RELATED_PRODUCT_CATEGORY ( 'detail', '', ( #156 ) ) ;
#240 = CARTESIAN_POINT ( 'NONE',  ( 0.000000000000000000, 0.000000000000000000, 5.000000000000000000 ) ) ;
#241 = DIRECTION ( 'NONE',  ( 0.000000000000000000, 0.000000000000000000, 1.000000000000000000 ) ) ;
#242 = PERSON_AND_ORGANIZATION ( #135, #102 ) ;
#243 = CARTESIAN_POINT ( 'NONE',  ( -5.500000000000000000, 0.000000000000000000, 635.0000000000000000 ) ) ;
#244 = UNCERTAINTY_MEASURE_WITH_UNIT (LENGTH_MEASURE( 1.000000000000000082E-05 ), #11, 'distance_accuracy_value', 'NONE');
#245 = CALENDAR_DATE ( 2022, 20, 6 ) ;
#246 = CARTESIAN_POINT ( 'NONE',  ( -5.500000000000000000, 0.000000000000000000, 635.0000000000000000 ) ) ;
#247 = DATE_AND_TIME ( #245, #218 ) ;
#248 = CARTESIAN_POINT ( 'NONE',  ( 0.000000000000000000, 0.000000000000000000, 0.000000000000000000 ) ) ;
#249 = CALENDAR_DATE ( 2022, 20, 6 ) ;
#250 = CARTESIAN_POINT ( 'NONE',  ( -8.000000000000000000, 0.000000000000000000, 5.000000000000000000 ) ) ;
#251 = CARTESIAN_POINT ( 'NONE',  ( -5.500000000000000000, 0.000000000000000000, 5.199999999999982414 ) ) ;
#252 = CARTESIAN_POINT ( 'NONE',  ( 0.000000000000000000, 0.000000000000000000, 5.000000000000000000 ) ) ;
#253 = CYLINDRICAL_SURFACE ( 'NONE', #2, 5.500000000000000000 ) ;
#254 = EDGE_CURVE ( 'NONE', #139, #188, #106, .T. ) ;
#255 = CARTESIAN_POINT ( 'NONE',  ( 5.500000000000000000, 6.735557395310442023E-16, 5.199999999999982414 ) ) ;
#256 = EDGE_LOOP ( 'NONE', ( #189, #206, #209, #111 ) ) ;
#257 = ORIENTED_EDGE ( 'NONE', *, *, #33, .F. ) ;
#258 = ADVANCED_FACE ( 'NONE', ( #86 ), #13, .T. ) ;
#259 = FACE_BOUND ( 'NONE', #110, .T. ) ;
#260 = TOROIDAL_SURFACE ( 'NONE', #129, 5.699999999999999289, 0.2000000000000000111 ) ;
#261 = PLANE ( 'NONE',  #90 ) ;
#262 = APPLICATION_CONTEXT ( 'configuration controlled 3d designs of mechanical parts and assemblies' ) ;
#263 = DIRECTION ( 'NONE',  ( 0.000000000000000000, 0.000000000000000000, 1.000000000000000000 ) ) ;
#264 = DATE_TIME_ROLE ( 'creation_date' ) ;
#265 = DIRECTION ( 'NONE',  ( -1.000000000000000000, 0.000000000000000000, 0.000000000000000000 ) ) ;
#266 = CIRCLE ( 'NONE', #301, 0.1999999999999996503 ) ;
#267 = CARTESIAN_POINT ( 'NONE',  ( -5.699999999999999289, 6.980486755139912122E-16, 4.999999999999991118 ) ) ;
#268 = CC_DESIGN_DATE_AND_TIME_ASSIGNMENT ( #247, #264, ( #99 ) ) ;
#269 = APPROVAL_ROLE ( '' ) ;
#270 = VECTOR ( 'NONE', #293, 1000.000000000000000 ) ;
#271 = DIRECTION ( 'NONE',  ( 1.000000000000000000, 0.000000000000000000, 0.000000000000000000 ) ) ;
#272 = ADVANCED_FACE ( 'NONE', ( #9 ), #173, .F. ) ;
#273 = DIRECTION ( 'NONE',  ( 1.000000000000000000, 0.000000000000000000, 0.000000000000000000 ) ) ;
#274 = APPROVAL_DATE_TIME ( #127, #192 ) ;
#275 = CARTESIAN_POINT ( 'NONE',  ( 0.000000000000000000, 0.000000000000000000, 635.0000000000000000 ) ) ;
#276 = DIRECTION ( 'NONE',  ( 0.000000000000000000, -1.000000000000000000, 0.000000000000000000 ) ) ;
#277 = DIRECTION ( 'NONE',  ( -1.000000000000000000, 0.000000000000000000, 0.000000000000000000 ) ) ;
#278 = CIRCLE ( 'NONE', #19, 5.500000000000000000 ) ;
#279 = APPROVAL ( #5, 'NEURÈENÝ' ) ;
#280 = ORIENTED_EDGE ( 'NONE', *, *, #292, .T. ) ;
#281 = ORIENTED_EDGE ( 'NONE', *, *, #24, .F. ) ;
#282 = CIRCLE ( 'NONE', #225, 8.000000000000000000 ) ;
#283 = VERTEX_POINT ( 'NONE', #255 ) ;
#284 = ORIENTED_EDGE ( 'NONE', *, *, #166, .T. ) ;
#285 = CIRCLE ( 'NONE', #155, 5.699999999999999289 ) ;
#286 = DIRECTION ( 'NONE',  ( 1.000000000000000000, 0.000000000000000000, -0.000000000000000000 ) ) ;
#287 =( GEOMETRIC_REPRESENTATION_CONTEXT ( 3 ) GLOBAL_UNCERTAINTY_ASSIGNED_CONTEXT ( ( #244 ) ) GLOBAL_UNIT_ASSIGNED_CONTEXT ( ( #11, #36, #137 ) ) REPRESENTATION_CONTEXT ( 'NONE', 'WORKASPACE' ) );
#288 = CARTESIAN_POINT ( 'NONE',  ( 0.000000000000000000, 0.000000000000000000, 5.199999999999982414 ) ) ;
#289 = PERSON_AND_ORGANIZATION ( #135, #102 ) ;
#290 = DIRECTION ( 'NONE',  ( 1.000000000000000000, 0.000000000000000000, 0.000000000000000000 ) ) ;
#291 = AXIS2_PLACEMENT_3D ( 'NONE', #240, #52, #26 ) ;
#292 = EDGE_CURVE ( 'NONE', #48, #143, #94, .T. ) ;
#293 = DIRECTION ( 'NONE',  ( -0.000000000000000000, -0.000000000000000000, -1.000000000000000000 ) ) ;
#294 = LINE ( 'NONE', #50, #270 ) ;
#295 = CC_DESIGN_DATE_AND_TIME_ASSIGNMENT ( #118, #196, ( #42 ) ) ;
#296 = LOCAL_TIME ( 11, 34, 48.00000000000000000, #151 ) ;
#297 = CARTESIAN_POINT ( 'NONE',  ( 0.000000000000000000, 0.000000000000000000, 5.000000000000000000 ) ) ;
#298 = CC_DESIGN_PERSON_AND_ORGANIZATION_ASSIGNMENT ( #153, #199, ( #119 ) ) ;
#299 = AXIS2_PLACEMENT_3D ( 'NONE', #116, #101, #238 ) ;
#300 = APPROVAL_DATE_TIME ( #88, #123 ) ;
#301 = AXIS2_PLACEMENT_3D ( 'NONE', #179, #276, #131 ) ;
#302 = ORIENTED_EDGE ( 'NONE', *, *, #234, .F. ) ;
#303 = CC_DESIGN_PERSON_AND_ORGANIZATION_ASSIGNMENT ( #84, #124, ( #42 ) ) ;
#304 = CIRCLE ( 'NONE', #49, 5.699999999999999289 ) ;
#305 = VERTEX_POINT ( 'NONE', #180 ) ;
#306 = VERTEX_POINT ( 'NONE', #251 ) ;
#307 = DIRECTION ( 'NONE',  ( -0.000000000000000000, -0.000000000000000000, -1.000000000000000000 ) ) ;
ENDSEC;
END-ISO-10303-21;
