ISO-10303-21;
HEADER;
FILE_DESCRIPTION (( 'STEP AP203' ),
    '1' );
FILE_NAME ('4b79.STEP',
    '2022-06-20T09:43:14',
    ( '' ),
    ( '' ),
    'SwSTEP 2.0',
    'SolidWorks 2019',
    '' );
FILE_SCHEMA (( 'CONFIG_CONTROL_DESIGN' ));
ENDSEC;

DATA;
#1 = LOCAL_TIME ( 11, 43, 14.00000000000000000, #223 ) ;
#2 = CARTESIAN_POINT ( 'NONE',  ( -4.500000000000000888, 0.000000000000000000, 320.0000000000000000 ) ) ;
#3 = CARTESIAN_POINT ( 'NONE',  ( 4.500000000000000888, 5.510910596163089556E-16, 5.199999999999982414 ) ) ;
#4 = ADVANCED_FACE ( 'NONE', ( #270 ), #156, .T. ) ;
#5 = ORIENTED_EDGE ( 'NONE', *, *, #148, .T. ) ;
#6 = CARTESIAN_POINT ( 'NONE',  ( 7.000000000000000000, 8.572527594031473190E-16, 5.000000000000000000 ) ) ;
#7 = ORIENTED_EDGE ( 'NONE', *, *, #46, .T. ) ;
#8 = CARTESIAN_POINT ( 'NONE',  ( 0.000000000000000000, 0.000000000000000000, 5.199999999999982414 ) ) ;
#9 = DIRECTION ( 'NONE',  ( 1.000000000000000000, 0.000000000000000000, -0.000000000000000000 ) ) ;
#10 = APPROVAL_DATE_TIME ( #117, #24 ) ;
#11 = ORIENTED_EDGE ( 'NONE', *, *, #143, .T. ) ;
#12 = PERSON_AND_ORGANIZATION ( #208, #49 ) ;
#13 = FACE_OUTER_BOUND ( 'NONE', #287, .T. ) ;
#14 = DIRECTION ( 'NONE',  ( -0.000000000000000000, -0.000000000000000000, -1.000000000000000000 ) ) ;
#15 = SECURITY_CLASSIFICATION_LEVEL ( 'unclassified' ) ;
#16 = CC_DESIGN_PERSON_AND_ORGANIZATION_ASSIGNMENT ( #176, #158, ( #97 ) ) ;
#17 = DIRECTION ( 'NONE',  ( 0.000000000000000000, 0.000000000000000000, 1.000000000000000000 ) ) ;
#18 = APPROVAL_ROLE ( '' ) ;
#19 = CC_DESIGN_PERSON_AND_ORGANIZATION_ASSIGNMENT ( #179, #138, ( #163 ) ) ;
#20 = DIRECTION ( 'NONE',  ( 1.000000000000000000, 0.000000000000000000, -0.000000000000000000 ) ) ;
#21 = AXIS2_PLACEMENT_3D ( 'NONE', #291, #247, #38 ) ;
#22 = DIRECTION ( 'NONE',  ( -0.000000000000000000, -0.000000000000000000, -1.000000000000000000 ) ) ;
#23 = UNCERTAINTY_MEASURE_WITH_UNIT (LENGTH_MEASURE( 1.000000000000000082E-05 ), #128, 'distance_accuracy_value', 'NONE');
#24 = APPROVAL ( #230, 'NEURÈENÝ' ) ;
#25 = AXIS2_PLACEMENT_3D ( 'NONE', #50, #281, #105 ) ;
#26 = ORIENTED_EDGE ( 'NONE', *, *, #130, .T. ) ;
#27 = CARTESIAN_POINT ( 'NONE',  ( 0.000000000000000000, 0.000000000000000000, 5.199999999999982414 ) ) ;
#28 = EDGE_LOOP ( 'NONE', ( #7, #170 ) ) ;
#29 = DIRECTION ( 'NONE',  ( 0.000000000000000000, 0.000000000000000000, 1.000000000000000000 ) ) ;
#30 = ORIENTED_EDGE ( 'NONE', *, *, #262, .F. ) ;
#31 = CYLINDRICAL_SURFACE ( 'NONE', #191, 4.500000000000000888 ) ;
#32 = VERTEX_POINT ( 'NONE', #290 ) ;
#33 = ORIENTED_EDGE ( 'NONE', *, *, #148, .F. ) ;
#34 = EDGE_CURVE ( 'NONE', #137, #55, #278, .T. ) ;
#35 = DATE_TIME_ROLE ( 'creation_date' ) ;
#36 = APPROVAL_PERSON_ORGANIZATION ( #43, #269, #268 ) ;
#37 = ORIENTED_EDGE ( 'NONE', *, *, #34, .T. ) ;
#38 = DIRECTION ( 'NONE',  ( 1.000000000000000000, 0.000000000000000000, 0.000000000000000000 ) ) ;
#39 = LINE ( 'NONE', #139, #70 ) ;
#40 = PERSON_AND_ORGANIZATION_ROLE ( 'design_supplier' ) ;
#41 = EDGE_CURVE ( 'NONE', #133, #241, #85, .T. ) ;
#42 = CARTESIAN_POINT ( 'NONE',  ( 0.000000000000000000, 0.000000000000000000, 5.199999999999982414 ) ) ;
#43 = PERSON_AND_ORGANIZATION ( #208, #49 ) ;
#44 = CC_DESIGN_DATE_AND_TIME_ASSIGNMENT ( #220, #35, ( #97 ) ) ;
#45 = COORDINATED_UNIVERSAL_TIME_OFFSET ( 1, 0, .AHEAD. ) ;
#46 = EDGE_CURVE ( 'NONE', #32, #55, #307, .T. ) ;
#47 = AXIS2_PLACEMENT_3D ( 'NONE', #157, #168, #248 ) ;
#48 = AXIS2_PLACEMENT_3D ( 'NONE', #237, #216, #166 ) ;
#49 = ORGANIZATION ( 'NEURÈENÝ', 'NEURÈENÝ', '' ) ;
#50 = CARTESIAN_POINT ( 'NONE',  ( 0.000000000000000000, 0.000000000000000000, 5.000000000000000000 ) ) ;
#51 = ADVANCED_FACE ( 'NONE', ( #13 ), #64, .F. ) ;
#52 = DIRECTION ( 'NONE',  ( 1.000000000000000000, 0.000000000000000000, 0.000000000000000000 ) ) ;
#53 = AXIS2_PLACEMENT_3D ( 'NONE', #87, #172, #221 ) ;
#54 = LINE ( 'NONE', #283, #119 ) ;
#55 = VERTEX_POINT ( 'NONE', #239 ) ;
#56 = FACE_OUTER_BOUND ( 'NONE', #152, .T. ) ;
#57 = SECURITY_CLASSIFICATION ( '', '', #15 ) ;
#58 = ORIENTED_EDGE ( 'NONE', *, *, #130, .F. ) ;
#59 = CARTESIAN_POINT ( 'NONE',  ( -7.000000000000000000, 0.000000000000000000, 5.000000000000000000 ) ) ;
#60 = ORIENTED_EDGE ( 'NONE', *, *, #178, .T. ) ;
#61 = COORDINATED_UNIVERSAL_TIME_OFFSET ( 1, 0, .AHEAD. ) ;
#62 = CARTESIAN_POINT ( 'NONE',  ( 0.000000000000000000, 0.000000000000000000, 5.000000000000000000 ) ) ;
#63 = LOCAL_TIME ( 11, 43, 14.00000000000000000, #204 ) ;
#64 = PLANE ( 'NONE',  #47 ) ;
#65 = APPROVAL_STATUS ( 'not_yet_approved' ) ;
#66 = CIRCLE ( 'NONE', #115, 0.1999999999999996503 ) ;
#67 = DIRECTION ( 'NONE',  ( 1.000000000000000000, 0.000000000000000000, 0.000000000000000000 ) ) ;
#68 = PERSON_AND_ORGANIZATION_ROLE ( 'creator' ) ;
#69 = EDGE_CURVE ( 'NONE', #265, #241, #39, .T. ) ;
#70 = VECTOR ( 'NONE', #14, 1000.000000000000000 ) ;
#71 = AXIS2_PLACEMENT_3D ( 'NONE', #151, #22, #129 ) ;
#72 = ADVANCED_FACE ( 'NONE', ( #261, #232 ), #275, .T. ) ;
#73 = ORIENTED_EDGE ( 'NONE', *, *, #93, .F. ) ;
#74 = EDGE_LOOP ( 'NONE', ( #112, #267, #210, #30 ) ) ;
#75 = CARTESIAN_POINT ( 'NONE',  ( -4.500000000000000888, 0.000000000000000000, 320.0000000000000000 ) ) ;
#76 = CC_DESIGN_APPROVAL ( #256, ( #57 ) ) ;
#77 = CARTESIAN_POINT ( 'NONE',  ( 0.000000000000000000, 0.000000000000000000, 0.000000000000000000 ) ) ;
#78 = EDGE_LOOP ( 'NONE', ( #58, #73, #284, #194 ) ) ;
#79 = AXIS2_PLACEMENT_3D ( 'NONE', #42, #140, #207 ) ;
#80 = ORIENTED_EDGE ( 'NONE', *, *, #186, .F. ) ;
#81 = CIRCLE ( 'NONE', #25, 7.000000000000000000 ) ;
#82 = CARTESIAN_POINT ( 'NONE',  ( 0.000000000000000000, 0.000000000000000000, 320.0000000000000000 ) ) ;
#83 = VERTEX_POINT ( 'NONE', #203 ) ;
#84 = DIRECTION ( 'NONE',  ( 1.000000000000000000, 0.000000000000000000, 0.000000000000000000 ) ) ;
#85 = CIRCLE ( 'NONE', #303, 7.000000000000000000 ) ;
#86 = EDGE_CURVE ( 'NONE', #137, #234, #167, .T. ) ;
#87 = CARTESIAN_POINT ( 'NONE',  ( -4.700000000000000178, 5.755839955992559655E-16, 5.199999999999982414 ) ) ;
#88 = DATE_AND_TIME ( #301, #229 ) ;
#89 = APPLICATION_PROTOCOL_DEFINITION ( 'international standard', 'config_control_design', 1994, #193 ) ;
#90 = APPROVAL_ROLE ( '' ) ;
#91 = TOROIDAL_SURFACE ( 'NONE', #258, 4.700000000000000178, 0.2000000000000000111 ) ;
#92 = DIRECTION ( 'NONE',  ( -1.000000000000000000, 0.000000000000000000, 0.000000000000000000 ) ) ;
#93 = EDGE_CURVE ( 'NONE', #265, #235, #217, .T. ) ;
#94 = EDGE_LOOP ( 'NONE', ( #108, #33, #154, #101 ) ) ;
#95 = CC_DESIGN_APPROVAL ( #269, ( #97 ) ) ;
#96 = ORIENTED_EDGE ( 'NONE', *, *, #104, .T. ) ;
#97 = PRODUCT_DEFINITION ( 'NEZNÁMÝ', '', #175, #145 ) ;
#98 = DIRECTION ( 'NONE',  ( 0.000000000000000000, 0.000000000000000000, 1.000000000000000000 ) ) ;
#99 = DIRECTION ( 'NONE',  ( 0.000000000000000000, 0.000000000000000000, 1.000000000000000000 ) ) ;
#100 = DIRECTION ( 'NONE',  ( 1.000000000000000000, 0.000000000000000000, 0.000000000000000000 ) ) ;
#101 = ORIENTED_EDGE ( 'NONE', *, *, #86, .T. ) ;
#102 = LINE ( 'NONE', #2, #124 ) ;
#103 = ORIENTED_EDGE ( 'NONE', *, *, #118, .F. ) ;
#104 = EDGE_CURVE ( 'NONE', #234, #137, #123, .T. ) ;
#105 = DIRECTION ( 'NONE',  ( 1.000000000000000000, 0.000000000000000000, 0.000000000000000000 ) ) ;
#106 = CARTESIAN_POINT ( 'NONE',  ( 0.000000000000000000, 0.000000000000000000, 320.0000000000000000 ) ) ;
#107 = DATE_AND_TIME ( #181, #63 ) ;
#108 = ORIENTED_EDGE ( 'NONE', *, *, #178, .F. ) ;
#109 = MECHANICAL_CONTEXT ( 'NONE', #177, 'mechanical' ) ;
#110 = ADVANCED_FACE ( 'NONE', ( #116 ), #299, .T. ) ;
#111 = DATE_AND_TIME ( #305, #222 ) ;
#112 = ORIENTED_EDGE ( 'NONE', *, *, #34, .F. ) ;
#113 = AXIS2_PLACEMENT_3D ( 'NONE', #162, #144, #20 ) ;
#114 = PERSON_AND_ORGANIZATION ( #208, #49 ) ;
#115 = AXIS2_PLACEMENT_3D ( 'NONE', #180, #273, #147 ) ;
#116 = FACE_OUTER_BOUND ( 'NONE', #94, .T. ) ;
#117 = DATE_AND_TIME ( #225, #1 ) ;
#118 = EDGE_CURVE ( 'NONE', #234, #32, #66, .T. ) ;
#119 = VECTOR ( 'NONE', #127, 1000.000000000000000 ) ;
#120 = CIRCLE ( 'NONE', #245, 4.500000000000000888 ) ;
#121 = PRODUCT_DEFINITION_SHAPE ( 'NONE', 'NONE',  #97 ) ;
#122 = DIRECTION ( 'NONE',  ( -0.000000000000000000, -0.000000000000000000, -1.000000000000000000 ) ) ;
#123 = CIRCLE ( 'NONE', #286, 4.500000000000000888 ) ;
#124 = VECTOR ( 'NONE', #149, 1000.000000000000000 ) ;
#125 = ORIENTED_EDGE ( 'NONE', *, *, #159, .T. ) ;
#126 =( GEOMETRIC_REPRESENTATION_CONTEXT ( 3 ) GLOBAL_UNCERTAINTY_ASSIGNED_CONTEXT ( ( #23 ) ) GLOBAL_UNIT_ASSIGNED_CONTEXT ( ( #128, #285, #243 ) ) REPRESENTATION_CONTEXT ( 'NONE', 'WORKASPACE' ) );
#127 = DIRECTION ( 'NONE',  ( -0.000000000000000000, -0.000000000000000000, -1.000000000000000000 ) ) ;
#128 =( LENGTH_UNIT ( ) NAMED_UNIT ( * ) SI_UNIT ( .MILLI., .METRE. ) );
#129 = DIRECTION ( 'NONE',  ( -1.000000000000000000, 0.000000000000000000, 0.000000000000000000 ) ) ;
#130 = EDGE_CURVE ( 'NONE', #235, #133, #257, .T. ) ;
#131 = ORIENTED_EDGE ( 'NONE', *, *, #159, .F. ) ;
#132 = DIRECTION ( 'NONE',  ( 0.000000000000000000, 0.000000000000000000, 1.000000000000000000 ) ) ;
#133 = VERTEX_POINT ( 'NONE', #260 ) ;
#134 = PERSON_AND_ORGANIZATION_ROLE ( 'classification_officer' ) ;
#135 = ORIENTED_EDGE ( 'NONE', *, *, #46, .F. ) ;
#136 = PERSON_AND_ORGANIZATION ( #208, #49 ) ;
#137 = VERTEX_POINT ( 'NONE', #240 ) ;
#138 = PERSON_AND_ORGANIZATION_ROLE ( 'design_owner' ) ;
#139 = CARTESIAN_POINT ( 'NONE',  ( -7.000000000000000000, 0.000000000000000000, 5.000000000000000000 ) ) ;
#140 = DIRECTION ( 'NONE',  ( 0.000000000000000000, 0.000000000000000000, 1.000000000000000000 ) ) ;
#141 = APPROVAL_DATE_TIME ( #88, #269 ) ;
#142 = APPROVAL_PERSON_ORGANIZATION ( #136, #24, #18 ) ;
#143 = EDGE_CURVE ( 'NONE', #83, #201, #183, .T. ) ;
#144 = DIRECTION ( 'NONE',  ( 0.000000000000000000, 0.000000000000000000, 1.000000000000000000 ) ) ;
#145 = DESIGN_CONTEXT ( 'detailed design', #193, 'design' ) ;
#146 = CARTESIAN_POINT ( 'NONE',  ( -7.000000000000000000, 0.000000000000000000, 0.000000000000000000 ) ) ;
#147 = DIRECTION ( 'NONE',  ( 0.000000000000000000, 0.000000000000000000, -1.000000000000000000 ) ) ;
#148 = EDGE_CURVE ( 'NONE', #201, #83, #120, .T. ) ;
#149 = DIRECTION ( 'NONE',  ( -0.000000000000000000, -0.000000000000000000, -1.000000000000000000 ) ) ;
#150 = DIRECTION ( 'NONE',  ( 0.000000000000000000, 0.000000000000000000, 1.000000000000000000 ) ) ;
#151 = CARTESIAN_POINT ( 'NONE',  ( 0.000000000000000000, 0.000000000000000000, 5.000000000000000000 ) ) ;
#152 = EDGE_LOOP ( 'NONE', ( #224, #60, #96, #295 ) ) ;
#153 = FACE_OUTER_BOUND ( 'NONE', #218, .T. ) ;
#154 = ORIENTED_EDGE ( 'NONE', *, *, #254, .T. ) ;
#155 = CALENDAR_DATE ( 2022, 20, 6 ) ;
#156 = PLANE ( 'NONE',  #238 ) ;
#157 = CARTESIAN_POINT ( 'NONE',  ( 0.000000000000000000, 0.000000000000000000, 0.000000000000000000 ) ) ;
#158 = PERSON_AND_ORGANIZATION_ROLE ( 'creator' ) ;
#159 = EDGE_CURVE ( 'NONE', #235, #265, #81, .T. ) ;
#160 = TOROIDAL_SURFACE ( 'NONE', #199, 4.700000000000000178, 0.2000000000000000111 ) ;
#161 = DIRECTION ( 'NONE',  ( -0.000000000000000000, -0.000000000000000000, -1.000000000000000000 ) ) ;
#162 = CARTESIAN_POINT ( 'NONE',  ( 0.000000000000000000, 0.000000000000000000, 5.000000000000000000 ) ) ;
#163 = PRODUCT ( '4b79', '4b79', '', ( #109 ) ) ;
#164 = CARTESIAN_POINT ( 'NONE',  ( 0.000000000000000000, 0.000000000000000000, 320.0000000000000000 ) ) ;
#165 = DIRECTION ( 'NONE',  ( 0.000000000000000000, 0.000000000000000000, 1.000000000000000000 ) ) ;
#166 = DIRECTION ( 'NONE',  ( -1.000000000000000000, 0.000000000000000000, 0.000000000000000000 ) ) ;
#167 = CIRCLE ( 'NONE', #79, 4.500000000000000888 ) ;
#168 = DIRECTION ( 'NONE',  ( 0.000000000000000000, 0.000000000000000000, 1.000000000000000000 ) ) ;
#169 = CARTESIAN_POINT ( 'NONE',  ( 7.000000000000000000, 8.572527594031473190E-16, 5.000000000000000000 ) ) ;
#170 = ORIENTED_EDGE ( 'NONE', *, *, #262, .T. ) ;
#171 = FACE_OUTER_BOUND ( 'NONE', #173, .T. ) ;
#172 = DIRECTION ( 'NONE',  ( 1.224646799147353207E-16, 1.000000000000000000, -0.000000000000000000 ) ) ;
#173 = EDGE_LOOP ( 'NONE', ( #131, #26, #185, #202 ) ) ;
#174 = ORIENTED_EDGE ( 'NONE', *, *, #41, .F. ) ;
#175 = PRODUCT_DEFINITION_FORMATION_WITH_SPECIFIED_SOURCE ( 'LIBOVOLNÝ', '', #163, .NOT_KNOWN. ) ;
#176 = PERSON_AND_ORGANIZATION ( #208, #49 ) ;
#177 = APPLICATION_CONTEXT ( 'configuration controlled 3d designs of mechanical parts and assemblies' ) ;
#178 = EDGE_CURVE ( 'NONE', #83, #234, #54, .T. ) ;
#179 = PERSON_AND_ORGANIZATION ( #208, #49 ) ;
#180 = CARTESIAN_POINT ( 'NONE',  ( 4.700000000000000178, 0.000000000000000000, 5.199999999999982414 ) ) ;
#181 = CALENDAR_DATE ( 2022, 20, 6 ) ;
#182 = CARTESIAN_POINT ( 'NONE',  ( 0.000000000000000000, 0.000000000000000000, 320.0000000000000000 ) ) ;
#183 = CIRCLE ( 'NONE', #209, 4.500000000000000888 ) ;
#184 = VECTOR ( 'NONE', #214, 1000.000000000000000 ) ;
#185 = ORIENTED_EDGE ( 'NONE', *, *, #41, .T. ) ;
#186 = EDGE_CURVE ( 'NONE', #241, #133, #233, .T. ) ;
#187 = ORIENTED_EDGE ( 'NONE', *, *, #93, .T. ) ;
#188 = DIRECTION ( 'NONE',  ( -1.000000000000000000, 0.000000000000000000, 0.000000000000000000 ) ) ;
#189 = DIRECTION ( 'NONE',  ( -0.000000000000000000, -0.000000000000000000, -1.000000000000000000 ) ) ;
#190 = CC_DESIGN_PERSON_AND_ORGANIZATION_ASSIGNMENT ( #114, #134, ( #57 ) ) ;
#191 = AXIS2_PLACEMENT_3D ( 'NONE', #82, #122, #188 ) ;
#192 = CYLINDRICAL_SURFACE ( 'NONE', #48, 7.000000000000000000 ) ;
#193 = APPLICATION_CONTEXT ( 'configuration controlled 3d designs of mechanical parts and assemblies' ) ;
#194 = ORIENTED_EDGE ( 'NONE', *, *, #186, .T. ) ;
#195 = AXIS2_PLACEMENT_3D ( 'NONE', #253, #228, #67 ) ;
#196 = EDGE_LOOP ( 'NONE', ( #5, #11 ) ) ;
#197 = FACE_OUTER_BOUND ( 'NONE', #74, .T. ) ;
#198 = EDGE_LOOP ( 'NONE', ( #187, #125 ) ) ;
#199 = AXIS2_PLACEMENT_3D ( 'NONE', #27, #98, #279 ) ;
#200 = APPROVAL_STATUS ( 'not_yet_approved' ) ;
#201 = VERTEX_POINT ( 'NONE', #75 ) ;
#202 = ORIENTED_EDGE ( 'NONE', *, *, #69, .F. ) ;
#203 = CARTESIAN_POINT ( 'NONE',  ( 4.500000000000000888, 5.510910596163089556E-16, 320.0000000000000000 ) ) ;
#204 = COORDINATED_UNIVERSAL_TIME_OFFSET ( 1, 0, .AHEAD. ) ;
#205 = PRODUCT_RELATED_PRODUCT_CATEGORY ( 'detail', '', ( #163 ) ) ;
#206 = LOCAL_TIME ( 11, 43, 14.00000000000000000, #61 ) ;
#207 = DIRECTION ( 'NONE',  ( 1.000000000000000000, 0.000000000000000000, 0.000000000000000000 ) ) ;
#208 = PERSON ( 'NEURÈENÝ', 'NEURÈENÝ', 'NEURÈENÝ', ('NEURÈENÝ'), ('NEURÈENÝ'), ('NEURÈENÝ') ) ;
#209 = AXIS2_PLACEMENT_3D ( 'NONE', #164, #165, #236 ) ;
#210 = ORIENTED_EDGE ( 'NONE', *, *, #118, .T. ) ;
#211 = CARTESIAN_POINT ( 'NONE',  ( 0.000000000000000000, 0.000000000000000000, 5.000000000000000000 ) ) ;
#212 = DIRECTION ( 'NONE',  ( 1.000000000000000000, 0.000000000000000000, 0.000000000000000000 ) ) ;
#213 = CLOSED_SHELL ( 'NONE', ( #276, #300, #226, #292, #72, #51, #110, #4, #280 ) ) ;
#214 = DIRECTION ( 'NONE',  ( -0.000000000000000000, -0.000000000000000000, -1.000000000000000000 ) ) ;
#215 = ORIENTED_EDGE ( 'NONE', *, *, #86, .F. ) ;
#216 = DIRECTION ( 'NONE',  ( -0.000000000000000000, -0.000000000000000000, -1.000000000000000000 ) ) ;
#217 = CIRCLE ( 'NONE', #195, 7.000000000000000000 ) ;
#218 = EDGE_LOOP ( 'NONE', ( #215, #37, #135, #103 ) ) ;
#219 = CC_DESIGN_DATE_AND_TIME_ASSIGNMENT ( #107, #242, ( #57 ) ) ;
#220 = DATE_AND_TIME ( #155, #206 ) ;
#221 = DIRECTION ( 'NONE',  ( -1.000000000000000000, 1.224646799147353454E-16, 0.000000000000000000 ) ) ;
#222 = LOCAL_TIME ( 11, 43, 14.00000000000000000, #45 ) ;
#223 = COORDINATED_UNIVERSAL_TIME_OFFSET ( 1, 0, .AHEAD. ) ;
#224 = ORIENTED_EDGE ( 'NONE', *, *, #143, .F. ) ;
#225 = CALENDAR_DATE ( 2022, 20, 6 ) ;
#226 = ADVANCED_FACE ( 'NONE', ( #171 ), #192, .T. ) ;
#227 = DIRECTION ( 'NONE',  ( 0.000000000000000000, 0.000000000000000000, 1.000000000000000000 ) ) ;
#228 = DIRECTION ( 'NONE',  ( 0.000000000000000000, 0.000000000000000000, 1.000000000000000000 ) ) ;
#229 = LOCAL_TIME ( 11, 43, 14.00000000000000000, #272 ) ;
#230 = APPROVAL_STATUS ( 'not_yet_approved' ) ;
#231 = APPROVAL_DATE_TIME ( #111, #256 ) ;
#232 = FACE_OUTER_BOUND ( 'NONE', #198, .T. ) ;
#233 = CIRCLE ( 'NONE', #251, 7.000000000000000000 ) ;
#234 = VERTEX_POINT ( 'NONE', #3 ) ;
#235 = VERTEX_POINT ( 'NONE', #169 ) ;
#236 = DIRECTION ( 'NONE',  ( 1.000000000000000000, 0.000000000000000000, 0.000000000000000000 ) ) ;
#237 = CARTESIAN_POINT ( 'NONE',  ( 0.000000000000000000, 0.000000000000000000, 5.000000000000000000 ) ) ;
#238 = AXIS2_PLACEMENT_3D ( 'NONE', #106, #227, #9 ) ;
#239 = CARTESIAN_POINT ( 'NONE',  ( -4.700000000000000178, 5.755839955992559655E-16, 4.999999999999991118 ) ) ;
#240 = CARTESIAN_POINT ( 'NONE',  ( -4.500000000000000888, 0.000000000000000000, 5.199999999999982414 ) ) ;
#241 = VERTEX_POINT ( 'NONE', #146 ) ;
#242 = DATE_TIME_ROLE ( 'classification_date' ) ;
#243 =( NAMED_UNIT ( * ) SI_UNIT ( $, .STERADIAN. ) SOLID_ANGLE_UNIT ( ) );
#244 = DIRECTION ( 'NONE',  ( 1.000000000000000000, 0.000000000000000000, 0.000000000000000000 ) ) ;
#245 = AXIS2_PLACEMENT_3D ( 'NONE', #266, #132, #288 ) ;
#246 = CC_DESIGN_PERSON_AND_ORGANIZATION_ASSIGNMENT ( #249, #40, ( #175 ) ) ;
#247 = DIRECTION ( 'NONE',  ( 0.000000000000000000, 0.000000000000000000, 1.000000000000000000 ) ) ;
#248 = DIRECTION ( 'NONE',  ( 1.000000000000000000, 0.000000000000000000, -0.000000000000000000 ) ) ;
#249 = PERSON_AND_ORGANIZATION ( #208, #49 ) ;
#250 = AXIS2_PLACEMENT_3D ( 'NONE', #62, #271, #244 ) ;
#251 = AXIS2_PLACEMENT_3D ( 'NONE', #77, #99, #212 ) ;
#252 = APPROVAL_PERSON_ORGANIZATION ( #298, #256, #90 ) ;
#253 = CARTESIAN_POINT ( 'NONE',  ( 0.000000000000000000, 0.000000000000000000, 5.000000000000000000 ) ) ;
#254 = EDGE_CURVE ( 'NONE', #201, #137, #102, .T. ) ;
#255 = MANIFOLD_SOLID_BREP ( 'Zaoblit1', #213 ) ;
#256 = APPROVAL ( #200, 'NEURÈENÝ' ) ;
#257 = LINE ( 'NONE', #6, #184 ) ;
#258 = AXIS2_PLACEMENT_3D ( 'NONE', #8, #29, #52 ) ;
#259 = CYLINDRICAL_SURFACE ( 'NONE', #71, 7.000000000000000000 ) ;
#260 = CARTESIAN_POINT ( 'NONE',  ( 7.000000000000000000, 8.572527594031473190E-16, 0.000000000000000000 ) ) ;
#261 = FACE_BOUND ( 'NONE', #28, .T. ) ;
#262 = EDGE_CURVE ( 'NONE', #55, #32, #264, .T. ) ;
#263 = FACE_OUTER_BOUND ( 'NONE', #78, .T. ) ;
#264 = CIRCLE ( 'NONE', #289, 4.700000000000000178 ) ;
#265 = VERTEX_POINT ( 'NONE', #59 ) ;
#266 = CARTESIAN_POINT ( 'NONE',  ( 0.000000000000000000, 0.000000000000000000, 320.0000000000000000 ) ) ;
#267 = ORIENTED_EDGE ( 'NONE', *, *, #104, .F. ) ;
#268 = APPROVAL_ROLE ( '' ) ;
#269 = APPROVAL ( #65, 'NEURÈENÝ' ) ;
#270 = FACE_OUTER_BOUND ( 'NONE', #196, .T. ) ;
#271 = DIRECTION ( 'NONE',  ( -0.000000000000000000, -0.000000000000000000, -1.000000000000000000 ) ) ;
#272 = COORDINATED_UNIVERSAL_TIME_OFFSET ( 1, 0, .AHEAD. ) ;
#273 = DIRECTION ( 'NONE',  ( 0.000000000000000000, -1.000000000000000000, 0.000000000000000000 ) ) ;
#274 = CC_DESIGN_PERSON_AND_ORGANIZATION_ASSIGNMENT ( #12, #68, ( #175 ) ) ;
#275 = PLANE ( 'NONE',  #113 ) ;
#276 = ADVANCED_FACE ( 'NONE', ( #153 ), #160, .F. ) ;
#277 = AXIS2_PLACEMENT_3D ( 'NONE', #182, #161, #92 ) ;
#278 = CIRCLE ( 'NONE', #53, 0.1999999999999996503 ) ;
#279 = DIRECTION ( 'NONE',  ( 1.000000000000000000, 0.000000000000000000, 0.000000000000000000 ) ) ;
#280 = ADVANCED_FACE ( 'NONE', ( #197 ), #91, .F. ) ;
#281 = DIRECTION ( 'NONE',  ( 0.000000000000000000, 0.000000000000000000, 1.000000000000000000 ) ) ;
#282 = CC_DESIGN_SECURITY_CLASSIFICATION ( #57, ( #175 ) ) ;
#283 = CARTESIAN_POINT ( 'NONE',  ( 4.500000000000000888, 5.510910596163089556E-16, 320.0000000000000000 ) ) ;
#284 = ORIENTED_EDGE ( 'NONE', *, *, #69, .T. ) ;
#285 =( NAMED_UNIT ( * ) PLANE_ANGLE_UNIT ( ) SI_UNIT ( $, .RADIAN. ) );
#286 = AXIS2_PLACEMENT_3D ( 'NONE', #306, #17, #304 ) ;
#287 = EDGE_LOOP ( 'NONE', ( #80, #174 ) ) ;
#288 = DIRECTION ( 'NONE',  ( 1.000000000000000000, 0.000000000000000000, 0.000000000000000000 ) ) ;
#289 = AXIS2_PLACEMENT_3D ( 'NONE', #211, #189, #100 ) ;
#290 = CARTESIAN_POINT ( 'NONE',  ( 4.700000000000000178, 0.000000000000000000, 4.999999999999991118 ) ) ;
#291 = CARTESIAN_POINT ( 'NONE',  ( 0.000000000000000000, 0.000000000000000000, 0.000000000000000000 ) ) ;
#292 = ADVANCED_FACE ( 'NONE', ( #263 ), #259, .T. ) ;
#293 = CARTESIAN_POINT ( 'NONE',  ( 0.000000000000000000, 0.000000000000000000, 0.000000000000000000 ) ) ;
#294 = ADVANCED_BREP_SHAPE_REPRESENTATION ( '4b79', ( #255, #21 ), #126 ) ;
#295 = ORIENTED_EDGE ( 'NONE', *, *, #254, .F. ) ;
#296 = APPLICATION_PROTOCOL_DEFINITION ( 'international standard', 'config_control_design', 1994, #177 ) ;
#297 = CC_DESIGN_APPROVAL ( #24, ( #175 ) ) ;
#298 = PERSON_AND_ORGANIZATION ( #208, #49 ) ;
#299 = CYLINDRICAL_SURFACE ( 'NONE', #277, 4.500000000000000888 ) ;
#300 = ADVANCED_FACE ( 'NONE', ( #56 ), #31, .T. ) ;
#301 = CALENDAR_DATE ( 2022, 20, 6 ) ;
#302 = SHAPE_DEFINITION_REPRESENTATION ( #121, #294 ) ;
#303 = AXIS2_PLACEMENT_3D ( 'NONE', #293, #150, #84 ) ;
#304 = DIRECTION ( 'NONE',  ( 1.000000000000000000, 0.000000000000000000, 0.000000000000000000 ) ) ;
#305 = CALENDAR_DATE ( 2022, 20, 6 ) ;
#306 = CARTESIAN_POINT ( 'NONE',  ( 0.000000000000000000, 0.000000000000000000, 5.199999999999982414 ) ) ;
#307 = CIRCLE ( 'NONE', #250, 4.700000000000000178 ) ;
ENDSEC;
END-ISO-10303-21;
