ISO-10303-21;
HEADER;
FILE_DESCRIPTION (( 'STEP AP203' ),
    '1' );
FILE_NAME ('2e15.STEP',
    '2023-02-12T11:51:28',
    ( '' ),
    ( '' ),
    'SwSTEP 2.0',
    'SolidWorks 2019',
    '' );
FILE_SCHEMA (( 'CONFIG_CONTROL_DESIGN' ));
ENDSEC;

DATA;
#1 = AXIS2_PLACEMENT_3D ( 'NONE', #87, #46, #214 ) ;
#2 = CYLINDRICAL_SURFACE ( 'NONE', #1, 5.000000000000000000 ) ;
#3 =( NAMED_UNIT ( * ) PLANE_ANGLE_UNIT ( ) SI_UNIT ( $, .RADIAN. ) );
#4 = EDGE_LOOP ( 'NONE', ( #184, #207 ) ) ;
#5 = APPROVAL ( #12, 'NEURÈENÝ' ) ;
#6 = VERTEX_POINT ( 'NONE', #125 ) ;
#7 = PERSON_AND_ORGANIZATION_ROLE ( 'creator' ) ;
#8 = APPROVAL_DATE_TIME ( #88, #5 ) ;
#9 = CIRCLE ( 'NONE', #150, 2.500000000000000000 ) ;
#10 = DATE_TIME_ROLE ( 'creation_date' ) ;
#11 = CARTESIAN_POINT ( 'NONE',  ( -5.000000000000000000, 0.000000000000000000, 3.000000000000000000 ) ) ;
#12 = APPROVAL_STATUS ( 'not_yet_approved' ) ;
#13 = CARTESIAN_POINT ( 'NONE',  ( -5.000000000000000000, 0.000000000000000000, 0.000000000000000000 ) ) ;
#14 = CIRCLE ( 'NONE', #131, 2.500000000000000000 ) ;
#15 = CARTESIAN_POINT ( 'NONE',  ( 2.500000000000000000, 3.061616997868383141E-16, 3.000000000000000000 ) ) ;
#16 = ADVANCED_FACE ( 'NONE', ( #174 ), #2, .T. ) ;
#17 = DIRECTION ( 'NONE',  ( -1.000000000000000000, 0.000000000000000000, 0.000000000000000000 ) ) ;
#18 = EDGE_LOOP ( 'NONE', ( #204, #35, #203, #238 ) ) ;
#19 = CARTESIAN_POINT ( 'NONE',  ( 0.000000000000000000, 0.000000000000000000, 200.0000000000000000 ) ) ;
#20 = APPROVAL_PERSON_ORGANIZATION ( #114, #21, #193 ) ;
#21 = APPROVAL ( #72, 'NEURÈENÝ' ) ;
#22 = ORIENTED_EDGE ( 'NONE', *, *, #220, .T. ) ;
#23 = VERTEX_POINT ( 'NONE', #69 ) ;
#24 = PRODUCT_DEFINITION ( 'NEZNÁMÝ', '', #243, #212 ) ;
#25 = CYLINDRICAL_SURFACE ( 'NONE', #171, 2.500000000000000000 ) ;
#26 = LOCAL_TIME ( 12, 51, 28.00000000000000000, #233 ) ;
#27 = APPROVAL_STATUS ( 'not_yet_approved' ) ;
#28 = DIRECTION ( 'NONE',  ( -1.000000000000000000, 0.000000000000000000, 0.000000000000000000 ) ) ;
#29 = EDGE_CURVE ( 'NONE', #221, #23, #191, .T. ) ;
#30 = DIRECTION ( 'NONE',  ( 0.000000000000000000, 0.000000000000000000, 1.000000000000000000 ) ) ;
#31 = AXIS2_PLACEMENT_3D ( 'NONE', #211, #208, #28 ) ;
#32 = CIRCLE ( 'NONE', #43, 5.000000000000000000 ) ;
#33 = APPROVAL_DATE_TIME ( #58, #21 ) ;
#34 = PLANE ( 'NONE',  #230 ) ;
#35 = ORIENTED_EDGE ( 'NONE', *, *, #179, .F. ) ;
#36 = ADVANCED_FACE ( 'NONE', ( #108 ), #190, .F. ) ;
#37 = VECTOR ( 'NONE', #44, 1000.000000000000000 ) ;
#38 = DIRECTION ( 'NONE',  ( -0.000000000000000000, -0.000000000000000000, -1.000000000000000000 ) ) ;
#39 = DIRECTION ( 'NONE',  ( -0.000000000000000000, -0.000000000000000000, -1.000000000000000000 ) ) ;
#40 = DIRECTION ( 'NONE',  ( 1.000000000000000000, 0.000000000000000000, 0.000000000000000000 ) ) ;
#41 = DIRECTION ( 'NONE',  ( 1.000000000000000000, 0.000000000000000000, 0.000000000000000000 ) ) ;
#42 = ORIENTED_EDGE ( 'NONE', *, *, #29, .F. ) ;
#43 = AXIS2_PLACEMENT_3D ( 'NONE', #124, #85, #143 ) ;
#44 = DIRECTION ( 'NONE',  ( -0.000000000000000000, -0.000000000000000000, -1.000000000000000000 ) ) ;
#45 = ORIENTED_EDGE ( 'NONE', *, *, #206, .T. ) ;
#46 = DIRECTION ( 'NONE',  ( -0.000000000000000000, -0.000000000000000000, -1.000000000000000000 ) ) ;
#47 = DIRECTION ( 'NONE',  ( 1.000000000000000000, 0.000000000000000000, -0.000000000000000000 ) ) ;
#48 = DATE_AND_TIME ( #70, #99 ) ;
#49 = CIRCLE ( 'NONE', #130, 2.500000000000000000 ) ;
#50 = DATE_AND_TIME ( #227, #136 ) ;
#51 = ADVANCED_FACE ( 'NONE', ( #226 ), #86, .T. ) ;
#52 = DATE_AND_TIME ( #71, #217 ) ;
#53 = DIRECTION ( 'NONE',  ( 1.000000000000000000, 0.000000000000000000, 0.000000000000000000 ) ) ;
#54 = VECTOR ( 'NONE', #169, 1000.000000000000000 ) ;
#55 = CALENDAR_DATE ( 2023, 12, 2 ) ;
#56 = CC_DESIGN_DATE_AND_TIME_ASSIGNMENT ( #52, #10, ( #24 ) ) ;
#57 = APPROVAL_PERSON_ORGANIZATION ( #106, #167, #146 ) ;
#58 = DATE_AND_TIME ( #55, #26 ) ;
#59 = CC_DESIGN_PERSON_AND_ORGANIZATION_ASSIGNMENT ( #240, #178, ( #113 ) ) ;
#60 = LINE ( 'NONE', #158, #157 ) ;
#61 = EDGE_LOOP ( 'NONE', ( #116, #42, #45, #139 ) ) ;
#62 = LOCAL_TIME ( 12, 51, 28.00000000000000000, #245 ) ;
#63 = ORIENTED_EDGE ( 'NONE', *, *, #250, .F. ) ;
#64 =( NAMED_UNIT ( * ) SI_UNIT ( $, .STERADIAN. ) SOLID_ANGLE_UNIT ( ) );
#65 = PLANE ( 'NONE',  #195 ) ;
#66 = EDGE_LOOP ( 'NONE', ( #235, #255 ) ) ;
#67 = CC_DESIGN_DATE_AND_TIME_ASSIGNMENT ( #50, #141, ( #113 ) ) ;
#68 = DIRECTION ( 'NONE',  ( 0.000000000000000000, 0.000000000000000000, 1.000000000000000000 ) ) ;
#69 = CARTESIAN_POINT ( 'NONE',  ( 5.000000000000000000, 6.123233995736766282E-16, 3.000000000000000000 ) ) ;
#70 = CALENDAR_DATE ( 2023, 12, 2 ) ;
#71 = CALENDAR_DATE ( 2023, 12, 2 ) ;
#72 = APPROVAL_STATUS ( 'not_yet_approved' ) ;
#73 = CIRCLE ( 'NONE', #82, 2.500000000000000000 ) ;
#74 = CARTESIAN_POINT ( 'NONE',  ( -2.500000000000000000, 0.000000000000000000, 3.000000000000000000 ) ) ;
#75 = ORIENTED_EDGE ( 'NONE', *, *, #155, .F. ) ;
#76 = VERTEX_POINT ( 'NONE', #13 ) ;
#77 = APPLICATION_CONTEXT ( 'configuration controlled 3d designs of mechanical parts and assemblies' ) ;
#78 = CC_DESIGN_PERSON_AND_ORGANIZATION_ASSIGNMENT ( #200, #176, ( #243 ) ) ;
#79 =( GEOMETRIC_REPRESENTATION_CONTEXT ( 3 ) GLOBAL_UNCERTAINTY_ASSIGNED_CONTEXT ( ( #251 ) ) GLOBAL_UNIT_ASSIGNED_CONTEXT ( ( #202, #3, #64 ) ) REPRESENTATION_CONTEXT ( 'NONE', 'WORKASPACE' ) );
#80 = CARTESIAN_POINT ( 'NONE',  ( 0.000000000000000000, 0.000000000000000000, 200.0000000000000000 ) ) ;
#81 = VERTEX_POINT ( 'NONE', #249 ) ;
#82 = AXIS2_PLACEMENT_3D ( 'NONE', #80, #199, #40 ) ;
#83 = ADVANCED_BREP_SHAPE_REPRESENTATION ( '2e15', ( #98, #198 ), #79 ) ;
#84 = ORIENTED_EDGE ( 'NONE', *, *, #29, .T. ) ;
#85 = DIRECTION ( 'NONE',  ( 0.000000000000000000, 0.000000000000000000, 1.000000000000000000 ) ) ;
#86 = CYLINDRICAL_SURFACE ( 'NONE', #31, 5.000000000000000000 ) ;
#87 = CARTESIAN_POINT ( 'NONE',  ( 0.000000000000000000, 0.000000000000000000, 3.000000000000000000 ) ) ;
#88 = DATE_AND_TIME ( #127, #62 ) ;
#89 = EDGE_CURVE ( 'NONE', #23, #221, #173, .T. ) ;
#90 = CARTESIAN_POINT ( 'NONE',  ( 5.000000000000000000, 6.123233995736766282E-16, 3.000000000000000000 ) ) ;
#91 = DIRECTION ( 'NONE',  ( -0.000000000000000000, -0.000000000000000000, -1.000000000000000000 ) ) ;
#92 = CC_DESIGN_APPROVAL ( #167, ( #243 ) ) ;
#93 = EDGE_CURVE ( 'NONE', #23, #6, #192, .T. ) ;
#94 = EDGE_LOOP ( 'NONE', ( #96, #159, #22, #163 ) ) ;
#95 = CARTESIAN_POINT ( 'NONE',  ( 0.000000000000000000, 0.000000000000000000, 3.000000000000000000 ) ) ;
#96 = ORIENTED_EDGE ( 'NONE', *, *, #89, .F. ) ;
#97 = ADVANCED_FACE ( 'NONE', ( #232 ), #194, .T. ) ;
#98 = MANIFOLD_SOLID_BREP ( 'Pøidat vysunutím3', #121 ) ;
#99 = LOCAL_TIME ( 12, 51, 28.00000000000000000, #147 ) ;
#100 = DIRECTION ( 'NONE',  ( -0.000000000000000000, -0.000000000000000000, -1.000000000000000000 ) ) ;
#101 = EDGE_LOOP ( 'NONE', ( #236, #63 ) ) ;
#102 = EDGE_CURVE ( 'NONE', #76, #6, #215, .T. ) ;
#103 = PRODUCT ( '2e15', '2e15', '', ( #188 ) ) ;
#104 = AXIS2_PLACEMENT_3D ( 'NONE', #196, #91, #17 ) ;
#105 = FACE_BOUND ( 'NONE', #101, .T. ) ;
#106 = PERSON_AND_ORGANIZATION ( #145, #254 ) ;
#107 = CARTESIAN_POINT ( 'NONE',  ( 0.000000000000000000, 0.000000000000000000, 3.000000000000000000 ) ) ;
#108 = FACE_OUTER_BOUND ( 'NONE', #66, .T. ) ;
#109 = DIRECTION ( 'NONE',  ( 0.000000000000000000, 0.000000000000000000, 1.000000000000000000 ) ) ;
#110 = DIRECTION ( 'NONE',  ( 1.000000000000000000, 0.000000000000000000, 0.000000000000000000 ) ) ;
#111 = CC_DESIGN_APPROVAL ( #5, ( #24 ) ) ;
#112 = CC_DESIGN_PERSON_AND_ORGANIZATION_ASSIGNMENT ( #183, #149, ( #103 ) ) ;
#113 = SECURITY_CLASSIFICATION ( '', '', #160 ) ;
#114 = PERSON_AND_ORGANIZATION ( #145, #254 ) ;
#115 = DIRECTION ( 'NONE',  ( 0.000000000000000000, 0.000000000000000000, 1.000000000000000000 ) ) ;
#116 = ORIENTED_EDGE ( 'NONE', *, *, #93, .F. ) ;
#117 = VECTOR ( 'NONE', #38, 1000.000000000000000 ) ;
#118 = FACE_OUTER_BOUND ( 'NONE', #135, .T. ) ;
#119 = DIRECTION ( 'NONE',  ( 1.000000000000000000, 0.000000000000000000, -0.000000000000000000 ) ) ;
#120 = DIRECTION ( 'NONE',  ( 1.000000000000000000, 0.000000000000000000, 0.000000000000000000 ) ) ;
#121 = CLOSED_SHELL ( 'NONE', ( #231, #51, #16, #216, #36, #97, #148 ) ) ;
#122 = CC_DESIGN_PERSON_AND_ORGANIZATION_ASSIGNMENT ( #209, #7, ( #243 ) ) ;
#123 = VERTEX_POINT ( 'NONE', #74 ) ;
#124 = CARTESIAN_POINT ( 'NONE',  ( 0.000000000000000000, 0.000000000000000000, 0.000000000000000000 ) ) ;
#125 = CARTESIAN_POINT ( 'NONE',  ( 5.000000000000000000, 6.123233995736766282E-16, 0.000000000000000000 ) ) ;
#126 = APPLICATION_CONTEXT ( 'configuration controlled 3d designs of mechanical parts and assemblies' ) ;
#127 = CALENDAR_DATE ( 2023, 12, 2 ) ;
#128 = DIRECTION ( 'NONE',  ( 1.000000000000000000, 0.000000000000000000, -0.000000000000000000 ) ) ;
#129 = APPROVAL_DATE_TIME ( #48, #167 ) ;
#130 = AXIS2_PLACEMENT_3D ( 'NONE', #95, #175, #120 ) ;
#131 = AXIS2_PLACEMENT_3D ( 'NONE', #241, #237, #41 ) ;
#132 = FACE_OUTER_BOUND ( 'NONE', #137, .T. ) ;
#133 = PERSON_AND_ORGANIZATION_ROLE ( 'creator' ) ;
#134 = CARTESIAN_POINT ( 'NONE',  ( 0.000000000000000000, 0.000000000000000000, 0.000000000000000000 ) ) ;
#135 = EDGE_LOOP ( 'NONE', ( #152, #144, #181, #75 ) ) ;
#136 = LOCAL_TIME ( 12, 51, 28.00000000000000000, #247 ) ;
#137 = EDGE_LOOP ( 'NONE', ( #84, #234 ) ) ;
#138 = CARTESIAN_POINT ( 'NONE',  ( 0.000000000000000000, 0.000000000000000000, 200.0000000000000000 ) ) ;
#139 = ORIENTED_EDGE ( 'NONE', *, *, #102, .T. ) ;
#140 = VERTEX_POINT ( 'NONE', #15 ) ;
#141 = DATE_TIME_ROLE ( 'classification_date' ) ;
#142 = AXIS2_PLACEMENT_3D ( 'NONE', #225, #109, #53 ) ;
#143 = DIRECTION ( 'NONE',  ( 1.000000000000000000, 0.000000000000000000, 0.000000000000000000 ) ) ;
#144 = ORIENTED_EDGE ( 'NONE', *, *, #228, .T. ) ;
#145 = PERSON ( 'NEURÈENÝ', 'NEURÈENÝ', 'NEURÈENÝ', ('NEURÈENÝ'), ('NEURÈENÝ'), ('NEURÈENÝ') ) ;
#146 = APPROVAL_ROLE ( '' ) ;
#147 = COORDINATED_UNIVERSAL_TIME_OFFSET ( 1, 0, .AHEAD. ) ;
#148 = ADVANCED_FACE ( 'NONE', ( #151 ), #34, .T. ) ;
#149 = PERSON_AND_ORGANIZATION_ROLE ( 'design_owner' ) ;
#150 = AXIS2_PLACEMENT_3D ( 'NONE', #19, #201, #177 ) ;
#151 = FACE_OUTER_BOUND ( 'NONE', #4, .T. ) ;
#152 = ORIENTED_EDGE ( 'NONE', *, *, #239, .F. ) ;
#153 = CARTESIAN_POINT ( 'NONE',  ( 0.000000000000000000, 0.000000000000000000, 200.0000000000000000 ) ) ;
#154 = CARTESIAN_POINT ( 'NONE',  ( 0.000000000000000000, 0.000000000000000000, 0.000000000000000000 ) ) ;
#155 = EDGE_CURVE ( 'NONE', #81, #123, #222, .T. ) ;
#156 = VERTEX_POINT ( 'NONE', #197 ) ;
#157 = VECTOR ( 'NONE', #39, 1000.000000000000000 ) ;
#158 = CARTESIAN_POINT ( 'NONE',  ( 2.500000000000000000, 3.061616997868383141E-16, 200.0000000000000000 ) ) ;
#159 = ORIENTED_EDGE ( 'NONE', *, *, #93, .T. ) ;
#160 = SECURITY_CLASSIFICATION_LEVEL ( 'unclassified' ) ;
#161 = CARTESIAN_POINT ( 'NONE',  ( -5.000000000000000000, 0.000000000000000000, 3.000000000000000000 ) ) ;
#162 = DIRECTION ( 'NONE',  ( 1.000000000000000000, 0.000000000000000000, 0.000000000000000000 ) ) ;
#163 = ORIENTED_EDGE ( 'NONE', *, *, #206, .F. ) ;
#164 = PRODUCT_DEFINITION_SHAPE ( 'NONE', 'NONE',  #24 ) ;
#165 = CC_DESIGN_APPROVAL ( #21, ( #113 ) ) ;
#166 = PERSON_AND_ORGANIZATION ( #145, #254 ) ;
#167 = APPROVAL ( #27, 'NEURÈENÝ' ) ;
#168 = CC_DESIGN_SECURITY_CLASSIFICATION ( #113, ( #243 ) ) ;
#169 = DIRECTION ( 'NONE',  ( -0.000000000000000000, -0.000000000000000000, -1.000000000000000000 ) ) ;
#170 = DIRECTION ( 'NONE',  ( 0.000000000000000000, 0.000000000000000000, 1.000000000000000000 ) ) ;
#171 = AXIS2_PLACEMENT_3D ( 'NONE', #138, #100, #219 ) ;
#172 = SHAPE_DEFINITION_REPRESENTATION ( #164, #83 ) ;
#173 = CIRCLE ( 'NONE', #252, 5.000000000000000000 ) ;
#174 = FACE_OUTER_BOUND ( 'NONE', #61, .T. ) ;
#175 = DIRECTION ( 'NONE',  ( 0.000000000000000000, 0.000000000000000000, 1.000000000000000000 ) ) ;
#176 = PERSON_AND_ORGANIZATION_ROLE ( 'design_supplier' ) ;
#177 = DIRECTION ( 'NONE',  ( 1.000000000000000000, 0.000000000000000000, 0.000000000000000000 ) ) ;
#178 = PERSON_AND_ORGANIZATION_ROLE ( 'classification_officer' ) ;
#179 = EDGE_CURVE ( 'NONE', #81, #156, #9, .T. ) ;
#180 = CARTESIAN_POINT ( 'NONE',  ( -2.500000000000000000, 0.000000000000000000, 200.0000000000000000 ) ) ;
#181 = ORIENTED_EDGE ( 'NONE', *, *, #250, .T. ) ;
#182 = DIRECTION ( 'NONE',  ( 0.000000000000000000, 0.000000000000000000, 1.000000000000000000 ) ) ;
#183 = PERSON_AND_ORGANIZATION ( #145, #254 ) ;
#184 = ORIENTED_EDGE ( 'NONE', *, *, #179, .T. ) ;
#185 = PRODUCT_RELATED_PRODUCT_CATEGORY ( 'detail', '', ( #103 ) ) ;
#186 = AXIS2_PLACEMENT_3D ( 'NONE', #134, #246, #128 ) ;
#187 = CARTESIAN_POINT ( 'NONE',  ( 0.000000000000000000, 0.000000000000000000, 3.000000000000000000 ) ) ;
#188 = MECHANICAL_CONTEXT ( 'NONE', #126, 'mechanical' ) ;
#189 = APPLICATION_PROTOCOL_DEFINITION ( 'international standard', 'config_control_design', 1994, #77 ) ;
#190 = PLANE ( 'NONE',  #186 ) ;
#191 = CIRCLE ( 'NONE', #142, 5.000000000000000000 ) ;
#192 = LINE ( 'NONE', #90, #54 ) ;
#193 = APPROVAL_ROLE ( '' ) ;
#194 = CYLINDRICAL_SURFACE ( 'NONE', #104, 2.500000000000000000 ) ;
#195 = AXIS2_PLACEMENT_3D ( 'NONE', #187, #182, #47 ) ;
#196 = CARTESIAN_POINT ( 'NONE',  ( 0.000000000000000000, 0.000000000000000000, 200.0000000000000000 ) ) ;
#197 = CARTESIAN_POINT ( 'NONE',  ( 2.500000000000000000, 3.061616997868383141E-16, 200.0000000000000000 ) ) ;
#198 = AXIS2_PLACEMENT_3D ( 'NONE', #213, #68, #162 ) ;
#199 = DIRECTION ( 'NONE',  ( 0.000000000000000000, 0.000000000000000000, 1.000000000000000000 ) ) ;
#200 = PERSON_AND_ORGANIZATION ( #145, #254 ) ;
#201 = DIRECTION ( 'NONE',  ( 0.000000000000000000, 0.000000000000000000, 1.000000000000000000 ) ) ;
#202 =( LENGTH_UNIT ( ) NAMED_UNIT ( * ) SI_UNIT ( .MILLI., .METRE. ) );
#203 = ORIENTED_EDGE ( 'NONE', *, *, #155, .T. ) ;
#204 = ORIENTED_EDGE ( 'NONE', *, *, #228, .F. ) ;
#205 = PERSON_AND_ORGANIZATION ( #145, #254 ) ;
#206 = EDGE_CURVE ( 'NONE', #221, #76, #244, .T. ) ;
#207 = ORIENTED_EDGE ( 'NONE', *, *, #239, .T. ) ;
#208 = DIRECTION ( 'NONE',  ( -0.000000000000000000, -0.000000000000000000, -1.000000000000000000 ) ) ;
#209 = PERSON_AND_ORGANIZATION ( #145, #254 ) ;
#210 = APPROVAL_ROLE ( '' ) ;
#211 = CARTESIAN_POINT ( 'NONE',  ( 0.000000000000000000, 0.000000000000000000, 3.000000000000000000 ) ) ;
#212 = DESIGN_CONTEXT ( 'detailed design', #77, 'design' ) ;
#213 = CARTESIAN_POINT ( 'NONE',  ( 0.000000000000000000, 0.000000000000000000, 0.000000000000000000 ) ) ;
#214 = DIRECTION ( 'NONE',  ( -1.000000000000000000, 0.000000000000000000, 0.000000000000000000 ) ) ;
#215 = CIRCLE ( 'NONE', #242, 5.000000000000000000 ) ;
#216 = ADVANCED_FACE ( 'NONE', ( #105, #132 ), #65, .T. ) ;
#217 = LOCAL_TIME ( 12, 51, 28.00000000000000000, #248 ) ;
#218 = CC_DESIGN_PERSON_AND_ORGANIZATION_ASSIGNMENT ( #166, #133, ( #24 ) ) ;
#219 = DIRECTION ( 'NONE',  ( -1.000000000000000000, 0.000000000000000000, 0.000000000000000000 ) ) ;
#220 = EDGE_CURVE ( 'NONE', #6, #76, #32, .T. ) ;
#221 = VERTEX_POINT ( 'NONE', #161 ) ;
#222 = LINE ( 'NONE', #180, #117 ) ;
#223 = APPROVAL_PERSON_ORGANIZATION ( #205, #5, #210 ) ;
#224 = EDGE_CURVE ( 'NONE', #123, #140, #14, .T. ) ;
#225 = CARTESIAN_POINT ( 'NONE',  ( 0.000000000000000000, 0.000000000000000000, 3.000000000000000000 ) ) ;
#226 = FACE_OUTER_BOUND ( 'NONE', #94, .T. ) ;
#227 = CALENDAR_DATE ( 2023, 12, 2 ) ;
#228 = EDGE_CURVE ( 'NONE', #156, #140, #60, .T. ) ;
#229 = APPLICATION_PROTOCOL_DEFINITION ( 'international standard', 'config_control_design', 1994, #126 ) ;
#230 = AXIS2_PLACEMENT_3D ( 'NONE', #153, #115, #119 ) ;
#231 = ADVANCED_FACE ( 'NONE', ( #118 ), #25, .T. ) ;
#232 = FACE_OUTER_BOUND ( 'NONE', #18, .T. ) ;
#233 = COORDINATED_UNIVERSAL_TIME_OFFSET ( 1, 0, .AHEAD. ) ;
#234 = ORIENTED_EDGE ( 'NONE', *, *, #89, .T. ) ;
#235 = ORIENTED_EDGE ( 'NONE', *, *, #102, .F. ) ;
#236 = ORIENTED_EDGE ( 'NONE', *, *, #224, .F. ) ;
#237 = DIRECTION ( 'NONE',  ( 0.000000000000000000, 0.000000000000000000, 1.000000000000000000 ) ) ;
#238 = ORIENTED_EDGE ( 'NONE', *, *, #224, .T. ) ;
#239 = EDGE_CURVE ( 'NONE', #156, #81, #73, .T. ) ;
#240 = PERSON_AND_ORGANIZATION ( #145, #254 ) ;
#241 = CARTESIAN_POINT ( 'NONE',  ( 0.000000000000000000, 0.000000000000000000, 3.000000000000000000 ) ) ;
#242 = AXIS2_PLACEMENT_3D ( 'NONE', #154, #170, #253 ) ;
#243 = PRODUCT_DEFINITION_FORMATION_WITH_SPECIFIED_SOURCE ( 'LIBOVOLNÝ', '', #103, .NOT_KNOWN. ) ;
#244 = LINE ( 'NONE', #11, #37 ) ;
#245 = COORDINATED_UNIVERSAL_TIME_OFFSET ( 1, 0, .AHEAD. ) ;
#246 = DIRECTION ( 'NONE',  ( 0.000000000000000000, 0.000000000000000000, 1.000000000000000000 ) ) ;
#247 = COORDINATED_UNIVERSAL_TIME_OFFSET ( 1, 0, .AHEAD. ) ;
#248 = COORDINATED_UNIVERSAL_TIME_OFFSET ( 1, 0, .AHEAD. ) ;
#249 = CARTESIAN_POINT ( 'NONE',  ( -2.500000000000000000, 0.000000000000000000, 200.0000000000000000 ) ) ;
#250 = EDGE_CURVE ( 'NONE', #140, #123, #49, .T. ) ;
#251 = UNCERTAINTY_MEASURE_WITH_UNIT (LENGTH_MEASURE( 1.000000000000000082E-05 ), #202, 'distance_accuracy_value', 'NONE');
#252 = AXIS2_PLACEMENT_3D ( 'NONE', #107, #30, #110 ) ;
#253 = DIRECTION ( 'NONE',  ( 1.000000000000000000, 0.000000000000000000, 0.000000000000000000 ) ) ;
#254 = ORGANIZATION ( 'NEURÈENÝ', 'NEURÈENÝ', '' ) ;
#255 = ORIENTED_EDGE ( 'NONE', *, *, #220, .F. ) ;
ENDSEC;
END-ISO-10303-21;
