ISO-10303-21;
HEADER;
FILE_DESCRIPTION (( 'STEP AP203' ),
    '1' );
FILE_NAME ('c847.STEP',
    '2023-02-12T11:10:10',
    ( '' ),
    ( '' ),
    'SwSTEP 2.0',
    'SolidWorks 2019',
    '' );
FILE_SCHEMA (( 'CONFIG_CONTROL_DESIGN' ));
ENDSEC;

DATA;
#1 = APPROVAL_STATUS ( 'not_yet_approved' ) ;
#2 = CALENDAR_DATE ( 2023, 12, 2 ) ;
#3 = EDGE_LOOP ( 'NONE', ( #113, #119 ) ) ;
#4 = ADVANCED_FACE ( 'NONE', ( #148 ), #250, .T. ) ;
#5 = PERSON_AND_ORGANIZATION ( #38, #159 ) ;
#6 = MANIFOLD_SOLID_BREP ( 'Pøidat vysunutím3', #208 ) ;
#7 = AXIS2_PLACEMENT_3D ( 'NONE', #131, #209, #155 ) ;
#8 = DIRECTION ( 'NONE',  ( -0.000000000000000000, -0.000000000000000000, -1.000000000000000000 ) ) ;
#9 = VERTEX_POINT ( 'NONE', #74 ) ;
#10 = DIRECTION ( 'NONE',  ( -0.000000000000000000, -0.000000000000000000, -1.000000000000000000 ) ) ;
#11 = CC_DESIGN_PERSON_AND_ORGANIZATION_ASSIGNMENT ( #67, #81, ( #79 ) ) ;
#12 = AXIS2_PLACEMENT_3D ( 'NONE', #151, #231, #133 ) ;
#13 = CARTESIAN_POINT ( 'NONE',  ( 0.000000000000000000, 0.000000000000000000, 0.000000000000000000 ) ) ;
#14 = ORIENTED_EDGE ( 'NONE', *, *, #221, .F. ) ;
#15 = CARTESIAN_POINT ( 'NONE',  ( 7.000000000000000000, 8.572527594031473190E-16, 5.000000000000000000 ) ) ;
#16 = AXIS2_PLACEMENT_3D ( 'NONE', #89, #161, #245 ) ;
#17 = DIRECTION ( 'NONE',  ( -0.000000000000000000, -0.000000000000000000, -1.000000000000000000 ) ) ;
#18 = DIRECTION ( 'NONE',  ( 1.000000000000000000, 0.000000000000000000, -0.000000000000000000 ) ) ;
#19 = PRODUCT_DEFINITION ( 'NEZNÁMÝ', '', #230, #224 ) ;
#20 = AXIS2_PLACEMENT_3D ( 'NONE', #213, #60, #116 ) ;
#21 = CARTESIAN_POINT ( 'NONE',  ( 0.000000000000000000, 0.000000000000000000, 0.000000000000000000 ) ) ;
#22 = CARTESIAN_POINT ( 'NONE',  ( 0.000000000000000000, 0.000000000000000000, 0.000000000000000000 ) ) ;
#23 = PRODUCT_RELATED_PRODUCT_CATEGORY ( 'detail', '', ( #79 ) ) ;
#24 = EDGE_LOOP ( 'NONE', ( #109, #52, #90, #198 ) ) ;
#25 = MECHANICAL_CONTEXT ( 'NONE', #210, 'mechanical' ) ;
#26 = ADVANCED_FACE ( 'NONE', ( #150 ), #229, .T. ) ;
#27 = APPROVAL_DATE_TIME ( #140, #225 ) ;
#28 = ORIENTED_EDGE ( 'NONE', *, *, #244, .F. ) ;
#29 = LOCAL_TIME ( 12, 10, 10.00000000000000000, #180 ) ;
#30 = DIRECTION ( 'NONE',  ( 1.000000000000000000, 0.000000000000000000, 0.000000000000000000 ) ) ;
#31 = PERSON_AND_ORGANIZATION ( #38, #159 ) ;
#32 = VERTEX_POINT ( 'NONE', #165 ) ;
#33 = CARTESIAN_POINT ( 'NONE',  ( 4.250000000000000000, 5.204748896376250699E-16, 315.0000000000000000 ) ) ;
#34 = AXIS2_PLACEMENT_3D ( 'NONE', #13, #93, #249 ) ;
#35 = APPROVAL_PERSON_ORGANIZATION ( #65, #225, #179 ) ;
#36 = ORIENTED_EDGE ( 'NONE', *, *, #240, .T. ) ;
#37 = ORIENTED_EDGE ( 'NONE', *, *, #59, .F. ) ;
#38 = PERSON ( 'NEURÈENÝ', 'NEURÈENÝ', 'NEURÈENÝ', ('NEURÈENÝ'), ('NEURÈENÝ'), ('NEURÈENÝ') ) ;
#39 = FACE_OUTER_BOUND ( 'NONE', #187, .T. ) ;
#40 = AXIS2_PLACEMENT_3D ( 'NONE', #205, #10, #91 ) ;
#41 = CC_DESIGN_APPROVAL ( #69, ( #197 ) ) ;
#42 = DIRECTION ( 'NONE',  ( -0.000000000000000000, -0.000000000000000000, -1.000000000000000000 ) ) ;
#43 = PLANE ( 'NONE',  #55 ) ;
#44 = LINE ( 'NONE', #99, #95 ) ;
#45 = CARTESIAN_POINT ( 'NONE',  ( -7.000000000000000000, 0.000000000000000000, 5.000000000000000000 ) ) ;
#46 = CC_DESIGN_PERSON_AND_ORGANIZATION_ASSIGNMENT ( #220, #123, ( #230 ) ) ;
#47 = PERSON_AND_ORGANIZATION ( #38, #159 ) ;
#48 = APPROVAL ( #106, 'NEURÈENÝ' ) ;
#49 = SHAPE_DEFINITION_REPRESENTATION ( #194, #137 ) ;
#50 = ORIENTED_EDGE ( 'NONE', *, *, #217, .F. ) ;
#51 = ADVANCED_FACE ( 'NONE', ( #126 ), #122, .T. ) ;
#52 = ORIENTED_EDGE ( 'NONE', *, *, #244, .T. ) ;
#53 = DIRECTION ( 'NONE',  ( -0.000000000000000000, -0.000000000000000000, -1.000000000000000000 ) ) ;
#54 = VERTEX_POINT ( 'NONE', #227 ) ;
#55 = AXIS2_PLACEMENT_3D ( 'NONE', #21, #255, #18 ) ;
#56 = CC_DESIGN_APPROVAL ( #48, ( #230 ) ) ;
#57 = ORIENTED_EDGE ( 'NONE', *, *, #199, .T. ) ;
#58 = DIRECTION ( 'NONE',  ( 0.000000000000000000, 0.000000000000000000, 1.000000000000000000 ) ) ;
#59 = EDGE_CURVE ( 'NONE', #105, #228, #125, .T. ) ;
#60 = DIRECTION ( 'NONE',  ( 0.000000000000000000, 0.000000000000000000, 1.000000000000000000 ) ) ;
#61 = DIRECTION ( 'NONE',  ( -0.000000000000000000, -0.000000000000000000, -1.000000000000000000 ) ) ;
#62 = CARTESIAN_POINT ( 'NONE',  ( 0.000000000000000000, 0.000000000000000000, 315.0000000000000000 ) ) ;
#63 = APPROVAL_PERSON_ORGANIZATION ( #70, #69, #166 ) ;
#64 = EDGE_CURVE ( 'NONE', #223, #54, #218, .T. ) ;
#65 = PERSON_AND_ORGANIZATION ( #38, #159 ) ;
#66 = AXIS2_PLACEMENT_3D ( 'NONE', #251, #61, #211 ) ;
#67 = PERSON_AND_ORGANIZATION ( #38, #159 ) ;
#68 = CARTESIAN_POINT ( 'NONE',  ( 0.000000000000000000, 0.000000000000000000, 315.0000000000000000 ) ) ;
#69 = APPROVAL ( #160, 'NEURÈENÝ' ) ;
#70 = PERSON_AND_ORGANIZATION ( #38, #159 ) ;
#71 = ORIENTED_EDGE ( 'NONE', *, *, #212, .T. ) ;
#72 = CARTESIAN_POINT ( 'NONE',  ( 0.000000000000000000, 0.000000000000000000, 315.0000000000000000 ) ) ;
#73 = FACE_OUTER_BOUND ( 'NONE', #145, .T. ) ;
#74 = CARTESIAN_POINT ( 'NONE',  ( -7.000000000000000000, 0.000000000000000000, 5.000000000000000000 ) ) ;
#75 = FACE_OUTER_BOUND ( 'NONE', #181, .T. ) ;
#76 =( NAMED_UNIT ( * ) SI_UNIT ( $, .STERADIAN. ) SOLID_ANGLE_UNIT ( ) );
#77 = AXIS2_PLACEMENT_3D ( 'NONE', #248, #53, #146 ) ;
#78 = CARTESIAN_POINT ( 'NONE',  ( -7.000000000000000000, 0.000000000000000000, 0.000000000000000000 ) ) ;
#79 = PRODUCT ( 'c847', 'c847', '', ( #25 ) ) ;
#80 = CARTESIAN_POINT ( 'NONE',  ( 4.250000000000000000, 5.204748896376250699E-16, 5.000000000000000000 ) ) ;
#81 = PERSON_AND_ORGANIZATION_ROLE ( 'design_owner' ) ;
#82 = COORDINATED_UNIVERSAL_TIME_OFFSET ( 1, 0, .AHEAD. ) ;
#83 = PERSON_AND_ORGANIZATION_ROLE ( 'creator' ) ;
#84 = DATE_AND_TIME ( #2, #29 ) ;
#85 = ORIENTED_EDGE ( 'NONE', *, *, #167, .T. ) ;
#86 = CIRCLE ( 'NONE', #154, 4.250000000000000000 ) ;
#87 = SECURITY_CLASSIFICATION_LEVEL ( 'unclassified' ) ;
#88 = ADVANCED_FACE ( 'NONE', ( #128, #73 ), #207, .T. ) ;
#89 = CARTESIAN_POINT ( 'NONE',  ( 0.000000000000000000, 0.000000000000000000, 5.000000000000000000 ) ) ;
#90 = ORIENTED_EDGE ( 'NONE', *, *, #217, .T. ) ;
#91 = DIRECTION ( 'NONE',  ( -1.000000000000000000, 0.000000000000000000, 0.000000000000000000 ) ) ;
#92 = DATE_AND_TIME ( #182, #170 ) ;
#93 = DIRECTION ( 'NONE',  ( 0.000000000000000000, 0.000000000000000000, 1.000000000000000000 ) ) ;
#94 = ORIENTED_EDGE ( 'NONE', *, *, #59, .T. ) ;
#95 = VECTOR ( 'NONE', #42, 1000.000000000000000 ) ;
#96 = LOCAL_TIME ( 12, 10, 10.00000000000000000, #121 ) ;
#97 = CIRCLE ( 'NONE', #117, 4.250000000000000000 ) ;
#98 = EDGE_CURVE ( 'NONE', #32, #105, #174, .T. ) ;
#99 = CARTESIAN_POINT ( 'NONE',  ( -4.250000000000000000, 0.000000000000000000, 315.0000000000000000 ) ) ;
#100 = CARTESIAN_POINT ( 'NONE',  ( 0.000000000000000000, 0.000000000000000000, 5.000000000000000000 ) ) ;
#101 = AXIS2_PLACEMENT_3D ( 'NONE', #68, #144, #30 ) ;
#102 = FACE_OUTER_BOUND ( 'NONE', #24, .T. ) ;
#103 = ORIENTED_EDGE ( 'NONE', *, *, #221, .T. ) ;
#104 = DATE_AND_TIME ( #241, #219 ) ;
#105 = VERTEX_POINT ( 'NONE', #222 ) ;
#106 = APPROVAL_STATUS ( 'not_yet_approved' ) ;
#107 = UNCERTAINTY_MEASURE_WITH_UNIT (LENGTH_MEASURE( 1.000000000000000082E-05 ), #234, 'distance_accuracy_value', 'NONE');
#108 = CC_DESIGN_PERSON_AND_ORGANIZATION_ASSIGNMENT ( #215, #83, ( #19 ) ) ;
#109 = ORIENTED_EDGE ( 'NONE', *, *, #188, .F. ) ;
#110 = VERTEX_POINT ( 'NONE', #191 ) ;
#111 = ORIENTED_EDGE ( 'NONE', *, *, #64, .F. ) ;
#112 = CIRCLE ( 'NONE', #12, 4.250000000000000000 ) ;
#113 = ORIENTED_EDGE ( 'NONE', *, *, #212, .F. ) ;
#114 = ORIENTED_EDGE ( 'NONE', *, *, #129, .F. ) ;
#115 = CYLINDRICAL_SURFACE ( 'NONE', #66, 7.000000000000000000 ) ;
#116 = DIRECTION ( 'NONE',  ( 1.000000000000000000, 0.000000000000000000, 0.000000000000000000 ) ) ;
#117 = AXIS2_PLACEMENT_3D ( 'NONE', #100, #193, #173 ) ;
#118 = ORIENTED_EDGE ( 'NONE', *, *, #188, .T. ) ;
#119 = ORIENTED_EDGE ( 'NONE', *, *, #199, .F. ) ;
#120 = AXIS2_PLACEMENT_3D ( 'NONE', #169, #135, #232 ) ;
#121 = COORDINATED_UNIVERSAL_TIME_OFFSET ( 1, 0, .AHEAD. ) ;
#122 = CYLINDRICAL_SURFACE ( 'NONE', #77, 4.250000000000000000 ) ;
#123 = PERSON_AND_ORGANIZATION_ROLE ( 'design_supplier' ) ;
#124 = DIRECTION ( 'NONE',  ( -0.000000000000000000, -0.000000000000000000, -1.000000000000000000 ) ) ;
#125 = LINE ( 'NONE', #33, #132 ) ;
#126 = FACE_OUTER_BOUND ( 'NONE', #203, .T. ) ;
#127 = VECTOR ( 'NONE', #236, 1000.000000000000000 ) ;
#128 = FACE_BOUND ( 'NONE', #3, .T. ) ;
#129 = EDGE_CURVE ( 'NONE', #9, #110, #243, .T. ) ;
#130 = LINE ( 'NONE', #45, #127 ) ;
#131 = CARTESIAN_POINT ( 'NONE',  ( 0.000000000000000000, 0.000000000000000000, 315.0000000000000000 ) ) ;
#132 = VECTOR ( 'NONE', #8, 1000.000000000000000 ) ;
#133 = DIRECTION ( 'NONE',  ( 1.000000000000000000, 0.000000000000000000, 0.000000000000000000 ) ) ;
#134 = CC_DESIGN_DATE_AND_TIME_ASSIGNMENT ( #104, #216, ( #19 ) ) ;
#135 = DIRECTION ( 'NONE',  ( 0.000000000000000000, 0.000000000000000000, 1.000000000000000000 ) ) ;
#136 = CARTESIAN_POINT ( 'NONE',  ( -4.250000000000000000, 0.000000000000000000, 5.000000000000000000 ) ) ;
#137 = ADVANCED_BREP_SHAPE_REPRESENTATION ( 'c847', ( #6, #239 ), #206 ) ;
#138 = APPROVAL_PERSON_ORGANIZATION ( #47, #48, #158 ) ;
#139 = DIRECTION ( 'NONE',  ( 0.000000000000000000, 0.000000000000000000, 1.000000000000000000 ) ) ;
#140 = DATE_AND_TIME ( #200, #156 ) ;
#141 = PERSON_AND_ORGANIZATION_ROLE ( 'creator' ) ;
#142 = ADVANCED_FACE ( 'NONE', ( #75 ), #43, .F. ) ;
#143 = COORDINATED_UNIVERSAL_TIME_OFFSET ( 1, 0, .AHEAD. ) ;
#144 = DIRECTION ( 'NONE',  ( 0.000000000000000000, 0.000000000000000000, 1.000000000000000000 ) ) ;
#145 = EDGE_LOOP ( 'NONE', ( #164, #118 ) ) ;
#146 = DIRECTION ( 'NONE',  ( -1.000000000000000000, 0.000000000000000000, 0.000000000000000000 ) ) ;
#147 = DATE_TIME_ROLE ( 'classification_date' ) ;
#148 = FACE_OUTER_BOUND ( 'NONE', #247, .T. ) ;
#149 = AXIS2_PLACEMENT_3D ( 'NONE', #72, #124, #204 ) ;
#150 = FACE_OUTER_BOUND ( 'NONE', #189, .T. ) ;
#151 = CARTESIAN_POINT ( 'NONE',  ( 0.000000000000000000, 0.000000000000000000, 5.000000000000000000 ) ) ;
#152 = PLANE ( 'NONE',  #7 ) ;
#153 = APPLICATION_PROTOCOL_DEFINITION ( 'international standard', 'config_control_design', 1994, #210 ) ;
#154 = AXIS2_PLACEMENT_3D ( 'NONE', #62, #58, #172 ) ;
#155 = DIRECTION ( 'NONE',  ( 1.000000000000000000, 0.000000000000000000, -0.000000000000000000 ) ) ;
#156 = LOCAL_TIME ( 12, 10, 10.00000000000000000, #82 ) ;
#157 = COORDINATED_UNIVERSAL_TIME_OFFSET ( 1, 0, .AHEAD. ) ;
#158 = APPROVAL_ROLE ( '' ) ;
#159 = ORGANIZATION ( 'NEURÈENÝ', 'NEURÈENÝ', '' ) ;
#160 = APPROVAL_STATUS ( 'not_yet_approved' ) ;
#161 = DIRECTION ( 'NONE',  ( 0.000000000000000000, 0.000000000000000000, 1.000000000000000000 ) ) ;
#162 = ORIENTED_EDGE ( 'NONE', *, *, #167, .F. ) ;
#163 = DATE_AND_TIME ( #183, #96 ) ;
#164 = ORIENTED_EDGE ( 'NONE', *, *, #129, .T. ) ;
#165 = CARTESIAN_POINT ( 'NONE',  ( -4.250000000000000000, 0.000000000000000000, 315.0000000000000000 ) ) ;
#166 = APPROVAL_ROLE ( '' ) ;
#167 = EDGE_CURVE ( 'NONE', #32, #202, #44, .T. ) ;
#168 = ORIENTED_EDGE ( 'NONE', *, *, #98, .F. ) ;
#169 = CARTESIAN_POINT ( 'NONE',  ( 0.000000000000000000, 0.000000000000000000, 5.000000000000000000 ) ) ;
#170 = LOCAL_TIME ( 12, 10, 10.00000000000000000, #143 ) ;
#171 =( NAMED_UNIT ( * ) PLANE_ANGLE_UNIT ( ) SI_UNIT ( $, .RADIAN. ) );
#172 = DIRECTION ( 'NONE',  ( 1.000000000000000000, 0.000000000000000000, 0.000000000000000000 ) ) ;
#173 = DIRECTION ( 'NONE',  ( 1.000000000000000000, 0.000000000000000000, 0.000000000000000000 ) ) ;
#174 = CIRCLE ( 'NONE', #101, 4.250000000000000000 ) ;
#175 = CC_DESIGN_APPROVAL ( #225, ( #19 ) ) ;
#176 = DIRECTION ( 'NONE',  ( 0.000000000000000000, 0.000000000000000000, 1.000000000000000000 ) ) ;
#177 = CC_DESIGN_PERSON_AND_ORGANIZATION_ASSIGNMENT ( #5, #141, ( #230 ) ) ;
#178 = DIRECTION ( 'NONE',  ( 1.000000000000000000, 0.000000000000000000, 0.000000000000000000 ) ) ;
#179 = APPROVAL_ROLE ( '' ) ;
#180 = COORDINATED_UNIVERSAL_TIME_OFFSET ( 1, 0, .AHEAD. ) ;
#181 = EDGE_LOOP ( 'NONE', ( #111, #50 ) ) ;
#182 = CALENDAR_DATE ( 2023, 12, 2 ) ;
#183 = CALENDAR_DATE ( 2023, 12, 2 ) ;
#184 = ORIENTED_EDGE ( 'NONE', *, *, #98, .T. ) ;
#185 = ORIENTED_EDGE ( 'NONE', *, *, #64, .T. ) ;
#186 = APPROVAL_DATE_TIME ( #163, #69 ) ;
#187 = EDGE_LOOP ( 'NONE', ( #184, #103 ) ) ;
#188 = EDGE_CURVE ( 'NONE', #110, #9, #196, .T. ) ;
#189 = EDGE_LOOP ( 'NONE', ( #28, #114, #36, #185 ) ) ;
#190 = LINE ( 'NONE', #15, #214 ) ;
#191 = CARTESIAN_POINT ( 'NONE',  ( 7.000000000000000000, 8.572527594031473190E-16, 5.000000000000000000 ) ) ;
#192 = ADVANCED_FACE ( 'NONE', ( #102 ), #115, .T. ) ;
#193 = DIRECTION ( 'NONE',  ( 0.000000000000000000, 0.000000000000000000, 1.000000000000000000 ) ) ;
#194 = PRODUCT_DEFINITION_SHAPE ( 'NONE', 'NONE',  #19 ) ;
#195 = CARTESIAN_POINT ( 'NONE',  ( 0.000000000000000000, 0.000000000000000000, 0.000000000000000000 ) ) ;
#196 = CIRCLE ( 'NONE', #120, 7.000000000000000000 ) ;
#197 = SECURITY_CLASSIFICATION ( '', '', #87 ) ;
#198 = ORIENTED_EDGE ( 'NONE', *, *, #240, .F. ) ;
#199 = EDGE_CURVE ( 'NONE', #228, #202, #97, .T. ) ;
#200 = CALENDAR_DATE ( 2023, 12, 2 ) ;
#201 = CC_DESIGN_DATE_AND_TIME_ASSIGNMENT ( #92, #147, ( #197 ) ) ;
#202 = VERTEX_POINT ( 'NONE', #136 ) ;
#203 = EDGE_LOOP ( 'NONE', ( #37, #168, #85, #71 ) ) ;
#204 = DIRECTION ( 'NONE',  ( -1.000000000000000000, 0.000000000000000000, 0.000000000000000000 ) ) ;
#205 = CARTESIAN_POINT ( 'NONE',  ( 0.000000000000000000, 0.000000000000000000, 5.000000000000000000 ) ) ;
#206 =( GEOMETRIC_REPRESENTATION_CONTEXT ( 3 ) GLOBAL_UNCERTAINTY_ASSIGNED_CONTEXT ( ( #107 ) ) GLOBAL_UNIT_ASSIGNED_CONTEXT ( ( #234, #171, #76 ) ) REPRESENTATION_CONTEXT ( 'NONE', 'WORKASPACE' ) );
#207 = PLANE ( 'NONE',  #16 ) ;
#208 = CLOSED_SHELL ( 'NONE', ( #4, #192, #26, #88, #142, #51, #235 ) ) ;
#209 = DIRECTION ( 'NONE',  ( 0.000000000000000000, 0.000000000000000000, 1.000000000000000000 ) ) ;
#210 = APPLICATION_CONTEXT ( 'configuration controlled 3d designs of mechanical parts and assemblies' ) ;
#211 = DIRECTION ( 'NONE',  ( -1.000000000000000000, 0.000000000000000000, 0.000000000000000000 ) ) ;
#212 = EDGE_CURVE ( 'NONE', #202, #228, #112, .T. ) ;
#213 = CARTESIAN_POINT ( 'NONE',  ( 0.000000000000000000, 0.000000000000000000, 5.000000000000000000 ) ) ;
#214 = VECTOR ( 'NONE', #17, 1000.000000000000000 ) ;
#215 = PERSON_AND_ORGANIZATION ( #38, #159 ) ;
#216 = DATE_TIME_ROLE ( 'creation_date' ) ;
#217 = EDGE_CURVE ( 'NONE', #54, #223, #252, .T. ) ;
#218 = CIRCLE ( 'NONE', #34, 7.000000000000000000 ) ;
#219 = LOCAL_TIME ( 12, 10, 10.00000000000000000, #157 ) ;
#220 = PERSON_AND_ORGANIZATION ( #38, #159 ) ;
#221 = EDGE_CURVE ( 'NONE', #105, #32, #86, .T. ) ;
#222 = CARTESIAN_POINT ( 'NONE',  ( 4.250000000000000000, 5.204748896376250699E-16, 315.0000000000000000 ) ) ;
#223 = VERTEX_POINT ( 'NONE', #78 ) ;
#224 = DESIGN_CONTEXT ( 'detailed design', #226, 'design' ) ;
#225 = APPROVAL ( #1, 'NEURÈENÝ' ) ;
#226 = APPLICATION_CONTEXT ( 'configuration controlled 3d designs of mechanical parts and assemblies' ) ;
#227 = CARTESIAN_POINT ( 'NONE',  ( 7.000000000000000000, 8.572527594031473190E-16, 0.000000000000000000 ) ) ;
#228 = VERTEX_POINT ( 'NONE', #80 ) ;
#229 = CYLINDRICAL_SURFACE ( 'NONE', #40, 7.000000000000000000 ) ;
#230 = PRODUCT_DEFINITION_FORMATION_WITH_SPECIFIED_SOURCE ( 'LIBOVOLNÝ', '', #79, .NOT_KNOWN. ) ;
#231 = DIRECTION ( 'NONE',  ( 0.000000000000000000, 0.000000000000000000, 1.000000000000000000 ) ) ;
#232 = DIRECTION ( 'NONE',  ( 1.000000000000000000, 0.000000000000000000, 0.000000000000000000 ) ) ;
#233 = DIRECTION ( 'NONE',  ( 1.000000000000000000, 0.000000000000000000, 0.000000000000000000 ) ) ;
#234 =( LENGTH_UNIT ( ) NAMED_UNIT ( * ) SI_UNIT ( .MILLI., .METRE. ) );
#235 = ADVANCED_FACE ( 'NONE', ( #39 ), #152, .T. ) ;
#236 = DIRECTION ( 'NONE',  ( -0.000000000000000000, -0.000000000000000000, -1.000000000000000000 ) ) ;
#237 = APPLICATION_PROTOCOL_DEFINITION ( 'international standard', 'config_control_design', 1994, #226 ) ;
#238 = CC_DESIGN_SECURITY_CLASSIFICATION ( #197, ( #230 ) ) ;
#239 = AXIS2_PLACEMENT_3D ( 'NONE', #22, #139, #178 ) ;
#240 = EDGE_CURVE ( 'NONE', #9, #223, #130, .T. ) ;
#241 = CALENDAR_DATE ( 2023, 12, 2 ) ;
#242 = APPROVAL_DATE_TIME ( #84, #48 ) ;
#243 = CIRCLE ( 'NONE', #20, 7.000000000000000000 ) ;
#244 = EDGE_CURVE ( 'NONE', #110, #54, #190, .T. ) ;
#245 = DIRECTION ( 'NONE',  ( 1.000000000000000000, 0.000000000000000000, -0.000000000000000000 ) ) ;
#246 = PERSON_AND_ORGANIZATION_ROLE ( 'classification_officer' ) ;
#247 = EDGE_LOOP ( 'NONE', ( #14, #94, #57, #162 ) ) ;
#248 = CARTESIAN_POINT ( 'NONE',  ( 0.000000000000000000, 0.000000000000000000, 315.0000000000000000 ) ) ;
#249 = DIRECTION ( 'NONE',  ( 1.000000000000000000, 0.000000000000000000, 0.000000000000000000 ) ) ;
#250 = CYLINDRICAL_SURFACE ( 'NONE', #149, 4.250000000000000000 ) ;
#251 = CARTESIAN_POINT ( 'NONE',  ( 0.000000000000000000, 0.000000000000000000, 5.000000000000000000 ) ) ;
#252 = CIRCLE ( 'NONE', #254, 7.000000000000000000 ) ;
#253 = CC_DESIGN_PERSON_AND_ORGANIZATION_ASSIGNMENT ( #31, #246, ( #197 ) ) ;
#254 = AXIS2_PLACEMENT_3D ( 'NONE', #195, #176, #233 ) ;
#255 = DIRECTION ( 'NONE',  ( 0.000000000000000000, 0.000000000000000000, 1.000000000000000000 ) ) ;
ENDSEC;
END-ISO-10303-21;
