ISO-10303-21;
HEADER;
FILE_DESCRIPTION (( 'STEP AP203' ),
    '1' );
FILE_NAME ('92a4.STEP',
    '2023-02-12T10:36:56',
    ( '' ),
    ( '' ),
    'SwSTEP 2.0',
    'SolidWorks 2019',
    '' );
FILE_SCHEMA (( 'CONFIG_CONTROL_DESIGN' ));
ENDSEC;

DATA;
#1 = CARTESIAN_POINT ( 'NONE',  ( 0.000000000000000000, 0.000000000000000000, 0.000000000000000000 ) ) ;
#2 = ADVANCED_FACE ( 'NONE', ( #112 ), #115, .T. ) ;
#3 = DIRECTION ( 'NONE',  ( 1.000000000000000000, 0.000000000000000000, -0.000000000000000000 ) ) ;
#4 = CC_DESIGN_PERSON_AND_ORGANIZATION_ASSIGNMENT ( #153, #175, ( #100 ) ) ;
#5 = ORIENTED_EDGE ( 'NONE', *, *, #197, .F. ) ;
#6 = AXIS2_PLACEMENT_3D ( 'NONE', #142, #253, #74 ) ;
#7 = ORIENTED_EDGE ( 'NONE', *, *, #125, .F. ) ;
#8 = PERSON_AND_ORGANIZATION ( #224, #38 ) ;
#9 = CYLINDRICAL_SURFACE ( 'NONE', #232, 10.00000000000000178 ) ;
#10 = CALENDAR_DATE ( 2023, 12, 2 ) ;
#11 = DIRECTION ( 'NONE',  ( -1.000000000000000000, 0.000000000000000000, 0.000000000000000000 ) ) ;
#12 = CALENDAR_DATE ( 2023, 12, 2 ) ;
#13 = CARTESIAN_POINT ( 'NONE',  ( -10.00000000000000178, 0.000000000000000000, 100.0000000000000000 ) ) ;
#14 = PRODUCT_DEFINITION_SHAPE ( 'NONE', 'NONE',  #157 ) ;
#15 = ORIENTED_EDGE ( 'NONE', *, *, #165, .T. ) ;
#16 = CIRCLE ( 'NONE', #78, 10.00000000000000178 ) ;
#17 = DIRECTION ( 'NONE',  ( 0.000000000000000000, 0.000000000000000000, 1.000000000000000000 ) ) ;
#18 = CC_DESIGN_PERSON_AND_ORGANIZATION_ASSIGNMENT ( #94, #209, ( #157 ) ) ;
#19 = DIRECTION ( 'NONE',  ( 1.000000000000000000, 0.000000000000000000, 0.000000000000000000 ) ) ;
#20 = DIRECTION ( 'NONE',  ( 0.000000000000000000, 0.000000000000000000, 1.000000000000000000 ) ) ;
#21 = DIRECTION ( 'NONE',  ( 0.000000000000000000, 0.000000000000000000, 1.000000000000000000 ) ) ;
#22 = MANIFOLD_SOLID_BREP ( 'Pøidat vysunutím3', #150 ) ;
#23 = EDGE_CURVE ( 'NONE', #204, #131, #53, .T. ) ;
#24 =( NAMED_UNIT ( * ) PLANE_ANGLE_UNIT ( ) SI_UNIT ( $, .RADIAN. ) );
#25 = EDGE_LOOP ( 'NONE', ( #235, #186 ) ) ;
#26 = CARTESIAN_POINT ( 'NONE',  ( 13.00000000000000178, 1.592040838891559293E-15, 8.000000000000000000 ) ) ;
#27 = CC_DESIGN_APPROVAL ( #160, ( #157 ) ) ;
#28 = VERTEX_POINT ( 'NONE', #47 ) ;
#29 = PERSON_AND_ORGANIZATION ( #224, #38 ) ;
#30 = CARTESIAN_POINT ( 'NONE',  ( 0.000000000000000000, 0.000000000000000000, 100.0000000000000000 ) ) ;
#31 = SHAPE_DEFINITION_REPRESENTATION ( #14, #248 ) ;
#32 = ORIENTED_EDGE ( 'NONE', *, *, #197, .T. ) ;
#33 = DIRECTION ( 'NONE',  ( -0.000000000000000000, -0.000000000000000000, -1.000000000000000000 ) ) ;
#34 = EDGE_CURVE ( 'NONE', #210, #169, #229, .T. ) ;
#35 = FACE_OUTER_BOUND ( 'NONE', #25, .T. ) ;
#36 = AXIS2_PLACEMENT_3D ( 'NONE', #101, #21, #242 ) ;
#37 = ADVANCED_FACE ( 'NONE', ( #189 ), #133, .T. ) ;
#38 = ORGANIZATION ( 'NEURÈENÝ', 'NEURÈENÝ', '' ) ;
#39 = CARTESIAN_POINT ( 'NONE',  ( -10.00000000000000178, 0.000000000000000000, 8.000000000000000000 ) ) ;
#40 = CYLINDRICAL_SURFACE ( 'NONE', #76, 13.00000000000000178 ) ;
#41 = ADVANCED_FACE ( 'NONE', ( #227 ), #146, .T. ) ;
#42 = CARTESIAN_POINT ( 'NONE',  ( -10.00000000000000178, 0.000000000000000000, 100.0000000000000000 ) ) ;
#43 = CC_DESIGN_PERSON_AND_ORGANIZATION_ASSIGNMENT ( #87, #89, ( #190 ) ) ;
#44 = DATE_AND_TIME ( #10, #107 ) ;
#45 = COORDINATED_UNIVERSAL_TIME_OFFSET ( 1, 0, .AHEAD. ) ;
#46 = ORIENTED_EDGE ( 'NONE', *, *, #54, .T. ) ;
#47 = CARTESIAN_POINT ( 'NONE',  ( -13.00000000000000178, 0.000000000000000000, 0.000000000000000000 ) ) ;
#48 = ADVANCED_FACE ( 'NONE', ( #174 ), #9, .T. ) ;
#49 = CALENDAR_DATE ( 2023, 12, 2 ) ;
#50 = ORIENTED_EDGE ( 'NONE', *, *, #125, .T. ) ;
#51 = PERSON_AND_ORGANIZATION ( #224, #38 ) ;
#52 = ORIENTED_EDGE ( 'NONE', *, *, #171, .F. ) ;
#53 = LINE ( 'NONE', #192, #82 ) ;
#54 = EDGE_CURVE ( 'NONE', #164, #28, #79, .T. ) ;
#55 = CARTESIAN_POINT ( 'NONE',  ( 0.000000000000000000, 0.000000000000000000, 8.000000000000000000 ) ) ;
#56 = CARTESIAN_POINT ( 'NONE',  ( 0.000000000000000000, 0.000000000000000000, 0.000000000000000000 ) ) ;
#57 = CARTESIAN_POINT ( 'NONE',  ( -13.00000000000000178, 0.000000000000000000, 8.000000000000000000 ) ) ;
#58 = APPROVAL_PERSON_ORGANIZATION ( #29, #160, #151 ) ;
#59 = EDGE_CURVE ( 'NONE', #131, #28, #167, .T. ) ;
#60 = FACE_OUTER_BOUND ( 'NONE', #246, .T. ) ;
#61 = LINE ( 'NONE', #203, #92 ) ;
#62 = VECTOR ( 'NONE', #214, 1000.000000000000000 ) ;
#63 = CC_DESIGN_APPROVAL ( #226, ( #215 ) ) ;
#64 = DIRECTION ( 'NONE',  ( -0.000000000000000000, -0.000000000000000000, -1.000000000000000000 ) ) ;
#65 = PERSON_AND_ORGANIZATION ( #224, #38 ) ;
#66 = DIRECTION ( 'NONE',  ( -0.000000000000000000, -0.000000000000000000, -1.000000000000000000 ) ) ;
#67 = PERSON_AND_ORGANIZATION ( #224, #38 ) ;
#68 = CC_DESIGN_APPROVAL ( #179, ( #190 ) ) ;
#69 = APPLICATION_PROTOCOL_DEFINITION ( 'international standard', 'config_control_design', 1994, #180 ) ;
#70 = ORIENTED_EDGE ( 'NONE', *, *, #222, .T. ) ;
#71 = CALENDAR_DATE ( 2023, 12, 2 ) ;
#72 = EDGE_LOOP ( 'NONE', ( #5, #70, #50, #152 ) ) ;
#73 = ADVANCED_FACE ( 'NONE', ( #35 ), #134, .F. ) ;
#74 = DIRECTION ( 'NONE',  ( 1.000000000000000000, 0.000000000000000000, 0.000000000000000000 ) ) ;
#75 = VERTEX_POINT ( 'NONE', #238 ) ;
#76 = AXIS2_PLACEMENT_3D ( 'NONE', #139, #144, #83 ) ;
#77 = DIRECTION ( 'NONE',  ( 0.000000000000000000, 0.000000000000000000, 1.000000000000000000 ) ) ;
#78 = AXIS2_PLACEMENT_3D ( 'NONE', #218, #20, #135 ) ;
#79 = LINE ( 'NONE', #199, #62 ) ;
#80 =( GEOMETRIC_REPRESENTATION_CONTEXT ( 3 ) GLOBAL_UNCERTAINTY_ASSIGNED_CONTEXT ( ( #156 ) ) GLOBAL_UNIT_ASSIGNED_CONTEXT ( ( #121, #24, #200 ) ) REPRESENTATION_CONTEXT ( 'NONE', 'WORKASPACE' ) );
#81 = DIRECTION ( 'NONE',  ( 0.000000000000000000, 0.000000000000000000, 1.000000000000000000 ) ) ;
#82 = VECTOR ( 'NONE', #66, 1000.000000000000000 ) ;
#83 = DIRECTION ( 'NONE',  ( -1.000000000000000000, 0.000000000000000000, 0.000000000000000000 ) ) ;
#84 = AXIS2_PLACEMENT_3D ( 'NONE', #30, #113, #88 ) ;
#85 = DIRECTION ( 'NONE',  ( 1.000000000000000000, 0.000000000000000000, 0.000000000000000000 ) ) ;
#86 = AXIS2_PLACEMENT_3D ( 'NONE', #183, #163, #85 ) ;
#87 = PERSON_AND_ORGANIZATION ( #224, #38 ) ;
#88 = DIRECTION ( 'NONE',  ( 1.000000000000000000, 0.000000000000000000, -0.000000000000000000 ) ) ;
#89 = PERSON_AND_ORGANIZATION_ROLE ( 'design_supplier' ) ;
#90 = ORIENTED_EDGE ( 'NONE', *, *, #23, .F. ) ;
#91 = COORDINATED_UNIVERSAL_TIME_OFFSET ( 1, 0, .AHEAD. ) ;
#92 = VECTOR ( 'NONE', #64, 1000.000000000000000 ) ;
#93 = DIRECTION ( 'NONE',  ( -1.000000000000000000, 0.000000000000000000, 0.000000000000000000 ) ) ;
#94 = PERSON_AND_ORGANIZATION ( #224, #38 ) ;
#95 = DIRECTION ( 'NONE',  ( -0.000000000000000000, -0.000000000000000000, -1.000000000000000000 ) ) ;
#96 = VECTOR ( 'NONE', #145, 1000.000000000000000 ) ;
#97 = ORIENTED_EDGE ( 'NONE', *, *, #217, .T. ) ;
#98 = DESIGN_CONTEXT ( 'detailed design', #180, 'design' ) ;
#99 = CARTESIAN_POINT ( 'NONE',  ( 13.00000000000000178, 1.592040838891559293E-15, 0.000000000000000000 ) ) ;
#100 = PRODUCT ( '92a4', '92a4', '', ( #243 ) ) ;
#101 = CARTESIAN_POINT ( 'NONE',  ( 0.000000000000000000, 0.000000000000000000, 100.0000000000000000 ) ) ;
#102 = AXIS2_PLACEMENT_3D ( 'NONE', #213, #33, #11 ) ;
#103 = FACE_BOUND ( 'NONE', #231, .T. ) ;
#104 = EDGE_CURVE ( 'NONE', #164, #204, #252, .T. ) ;
#105 = EDGE_LOOP ( 'NONE', ( #236, #32 ) ) ;
#106 = PLANE ( 'NONE',  #237 ) ;
#107 = LOCAL_TIME ( 11, 36, 56.00000000000000000, #91 ) ;
#108 = PRODUCT_RELATED_PRODUCT_CATEGORY ( 'detail', '', ( #100 ) ) ;
#109 = COORDINATED_UNIVERSAL_TIME_OFFSET ( 1, 0, .AHEAD. ) ;
#110 = EDGE_LOOP ( 'NONE', ( #176, #52, #201, #15 ) ) ;
#111 = APPROVAL_STATUS ( 'not_yet_approved' ) ;
#112 = FACE_OUTER_BOUND ( 'NONE', #105, .T. ) ;
#113 = DIRECTION ( 'NONE',  ( 0.000000000000000000, 0.000000000000000000, 1.000000000000000000 ) ) ;
#114 = SECURITY_CLASSIFICATION_LEVEL ( 'unclassified' ) ;
#115 = PLANE ( 'NONE',  #84 ) ;
#116 = ORIENTED_EDGE ( 'NONE', *, *, #54, .F. ) ;
#117 = CIRCLE ( 'NONE', #36, 10.00000000000000178 ) ;
#118 = AXIS2_PLACEMENT_3D ( 'NONE', #162, #255, #19 ) ;
#119 = EDGE_CURVE ( 'NONE', #204, #164, #137, .T. ) ;
#120 = CIRCLE ( 'NONE', #202, 10.00000000000000178 ) ;
#121 =( LENGTH_UNIT ( ) NAMED_UNIT ( * ) SI_UNIT ( .MILLI., .METRE. ) );
#122 = APPLICATION_PROTOCOL_DEFINITION ( 'international standard', 'config_control_design', 1994, #207 ) ;
#123 = CIRCLE ( 'NONE', #86, 13.00000000000000178 ) ;
#124 = APPROVAL_DATE_TIME ( #44, #160 ) ;
#125 = EDGE_CURVE ( 'NONE', #149, #169, #16, .T. ) ;
#126 = CALENDAR_DATE ( 2023, 12, 2 ) ;
#127 = CARTESIAN_POINT ( 'NONE',  ( 0.000000000000000000, 0.000000000000000000, 100.0000000000000000 ) ) ;
#128 = ORIENTED_EDGE ( 'NONE', *, *, #104, .T. ) ;
#129 = CC_DESIGN_DATE_AND_TIME_ASSIGNMENT ( #168, #245, ( #215 ) ) ;
#130 = APPROVAL_ROLE ( '' ) ;
#131 = VERTEX_POINT ( 'NONE', #99 ) ;
#132 = ORIENTED_EDGE ( 'NONE', *, *, #165, .F. ) ;
#133 = CYLINDRICAL_SURFACE ( 'NONE', #102, 13.00000000000000178 ) ;
#134 = PLANE ( 'NONE',  #198 ) ;
#135 = DIRECTION ( 'NONE',  ( 1.000000000000000000, 0.000000000000000000, 0.000000000000000000 ) ) ;
#136 = DIRECTION ( 'NONE',  ( 1.000000000000000000, 0.000000000000000000, 0.000000000000000000 ) ) ;
#137 = CIRCLE ( 'NONE', #240, 13.00000000000000178 ) ;
#138 = APPROVAL_PERSON_ORGANIZATION ( #67, #226, #130 ) ;
#139 = CARTESIAN_POINT ( 'NONE',  ( 0.000000000000000000, 0.000000000000000000, 8.000000000000000000 ) ) ;
#140 = CARTESIAN_POINT ( 'NONE',  ( 0.000000000000000000, 0.000000000000000000, 8.000000000000000000 ) ) ;
#141 = AXIS2_PLACEMENT_3D ( 'NONE', #127, #95, #93 ) ;
#142 = CARTESIAN_POINT ( 'NONE',  ( 0.000000000000000000, 0.000000000000000000, 0.000000000000000000 ) ) ;
#143 = DIRECTION ( 'NONE',  ( 0.000000000000000000, 0.000000000000000000, 1.000000000000000000 ) ) ;
#144 = DIRECTION ( 'NONE',  ( -0.000000000000000000, -0.000000000000000000, -1.000000000000000000 ) ) ;
#145 = DIRECTION ( 'NONE',  ( -0.000000000000000000, -0.000000000000000000, -1.000000000000000000 ) ) ;
#146 = CYLINDRICAL_SURFACE ( 'NONE', #141, 10.00000000000000178 ) ;
#147 = CC_DESIGN_DATE_AND_TIME_ASSIGNMENT ( #188, #170, ( #157 ) ) ;
#148 = PERSON_AND_ORGANIZATION_ROLE ( 'creator' ) ;
#149 = VERTEX_POINT ( 'NONE', #181 ) ;
#150 = CLOSED_SHELL ( 'NONE', ( #41, #37, #177, #233, #73, #48, #2 ) ) ;
#151 = APPROVAL_ROLE ( '' ) ;
#152 = ORIENTED_EDGE ( 'NONE', *, *, #34, .F. ) ;
#153 = PERSON_AND_ORGANIZATION ( #224, #38 ) ;
#154 = CIRCLE ( 'NONE', #220, 10.00000000000000178 ) ;
#155 = ORIENTED_EDGE ( 'NONE', *, *, #104, .F. ) ;
#156 = UNCERTAINTY_MEASURE_WITH_UNIT (LENGTH_MEASURE( 1.000000000000000082E-05 ), #121, 'distance_accuracy_value', 'NONE');
#157 = PRODUCT_DEFINITION ( 'NEZNÁMÝ', '', #190, #98 ) ;
#158 = DIRECTION ( 'NONE',  ( 1.000000000000000000, 0.000000000000000000, 0.000000000000000000 ) ) ;
#159 = DIRECTION ( 'NONE',  ( 1.000000000000000000, 0.000000000000000000, -0.000000000000000000 ) ) ;
#160 = APPROVAL ( #111, 'NEURÈENÝ' ) ;
#161 = DIRECTION ( 'NONE',  ( 0.000000000000000000, 0.000000000000000000, 1.000000000000000000 ) ) ;
#162 = CARTESIAN_POINT ( 'NONE',  ( 0.000000000000000000, 0.000000000000000000, 8.000000000000000000 ) ) ;
#163 = DIRECTION ( 'NONE',  ( 0.000000000000000000, 0.000000000000000000, 1.000000000000000000 ) ) ;
#164 = VERTEX_POINT ( 'NONE', #57 ) ;
#165 = EDGE_CURVE ( 'NONE', #169, #149, #154, .T. ) ;
#166 = ORIENTED_EDGE ( 'NONE', *, *, #23, .T. ) ;
#167 = CIRCLE ( 'NONE', #221, 13.00000000000000178 ) ;
#168 = DATE_AND_TIME ( #49, #254 ) ;
#169 = VERTEX_POINT ( 'NONE', #39 ) ;
#170 = DATE_TIME_ROLE ( 'creation_date' ) ;
#171 = EDGE_CURVE ( 'NONE', #210, #75, #120, .T. ) ;
#172 = CARTESIAN_POINT ( 'NONE',  ( 0.000000000000000000, 0.000000000000000000, 100.0000000000000000 ) ) ;
#173 = APPROVAL_DATE_TIME ( #185, #179 ) ;
#174 = FACE_OUTER_BOUND ( 'NONE', #110, .T. ) ;
#175 = PERSON_AND_ORGANIZATION_ROLE ( 'design_owner' ) ;
#176 = ORIENTED_EDGE ( 'NONE', *, *, #222, .F. ) ;
#177 = ADVANCED_FACE ( 'NONE', ( #60 ), #40, .T. ) ;
#178 = LOCAL_TIME ( 11, 36, 56.00000000000000000, #250 ) ;
#179 = APPROVAL ( #247, 'NEURÈENÝ' ) ;
#180 = APPLICATION_CONTEXT ( 'configuration controlled 3d designs of mechanical parts and assemblies' ) ;
#181 = CARTESIAN_POINT ( 'NONE',  ( 10.00000000000000178, 1.224646799147353454E-15, 8.000000000000000000 ) ) ;
#182 = LOCAL_TIME ( 11, 36, 56.00000000000000000, #109 ) ;
#183 = CARTESIAN_POINT ( 'NONE',  ( 0.000000000000000000, 0.000000000000000000, 0.000000000000000000 ) ) ;
#184 = FACE_OUTER_BOUND ( 'NONE', #208, .T. ) ;
#185 = DATE_AND_TIME ( #12, #182 ) ;
#186 = ORIENTED_EDGE ( 'NONE', *, *, #59, .F. ) ;
#187 = CC_DESIGN_PERSON_AND_ORGANIZATION_ASSIGNMENT ( #8, #148, ( #190 ) ) ;
#188 = DATE_AND_TIME ( #126, #205 ) ;
#189 = FACE_OUTER_BOUND ( 'NONE', #194, .T. ) ;
#190 = PRODUCT_DEFINITION_FORMATION_WITH_SPECIFIED_SOURCE ( 'LIBOVOLNÝ', '', #100, .NOT_KNOWN. ) ;
#191 = APPROVAL_ROLE ( '' ) ;
#192 = CARTESIAN_POINT ( 'NONE',  ( 13.00000000000000178, 1.592040838891559293E-15, 8.000000000000000000 ) ) ;
#193 = DATE_AND_TIME ( #71, #178 ) ;
#194 = EDGE_LOOP ( 'NONE', ( #244, #166, #206, #116 ) ) ;
#195 = CARTESIAN_POINT ( 'NONE',  ( 0.000000000000000000, 0.000000000000000000, 100.0000000000000000 ) ) ;
#196 = CC_DESIGN_SECURITY_CLASSIFICATION ( #215, ( #190 ) ) ;
#197 = EDGE_CURVE ( 'NONE', #75, #210, #117, .T. ) ;
#198 = AXIS2_PLACEMENT_3D ( 'NONE', #56, #216, #159 ) ;
#199 = CARTESIAN_POINT ( 'NONE',  ( -13.00000000000000178, 0.000000000000000000, 8.000000000000000000 ) ) ;
#200 =( NAMED_UNIT ( * ) SI_UNIT ( $, .STERADIAN. ) SOLID_ANGLE_UNIT ( ) );
#201 = ORIENTED_EDGE ( 'NONE', *, *, #34, .T. ) ;
#202 = AXIS2_PLACEMENT_3D ( 'NONE', #195, #17, #241 ) ;
#203 = CARTESIAN_POINT ( 'NONE',  ( 10.00000000000000178, 1.224646799147353454E-15, 100.0000000000000000 ) ) ;
#204 = VERTEX_POINT ( 'NONE', #26 ) ;
#205 = LOCAL_TIME ( 11, 36, 56.00000000000000000, #230 ) ;
#206 = ORIENTED_EDGE ( 'NONE', *, *, #59, .T. ) ;
#207 = APPLICATION_CONTEXT ( 'configuration controlled 3d designs of mechanical parts and assemblies' ) ;
#208 = EDGE_LOOP ( 'NONE', ( #128, #223 ) ) ;
#209 = PERSON_AND_ORGANIZATION_ROLE ( 'creator' ) ;
#210 = VERTEX_POINT ( 'NONE', #42 ) ;
#211 = APPROVAL_PERSON_ORGANIZATION ( #51, #179, #191 ) ;
#212 = CC_DESIGN_PERSON_AND_ORGANIZATION_ASSIGNMENT ( #65, #225, ( #215 ) ) ;
#213 = CARTESIAN_POINT ( 'NONE',  ( 0.000000000000000000, 0.000000000000000000, 8.000000000000000000 ) ) ;
#214 = DIRECTION ( 'NONE',  ( -0.000000000000000000, -0.000000000000000000, -1.000000000000000000 ) ) ;
#215 = SECURITY_CLASSIFICATION ( '', '', #114 ) ;
#216 = DIRECTION ( 'NONE',  ( 0.000000000000000000, 0.000000000000000000, 1.000000000000000000 ) ) ;
#217 = EDGE_CURVE ( 'NONE', #28, #131, #123, .T. ) ;
#218 = CARTESIAN_POINT ( 'NONE',  ( 0.000000000000000000, 0.000000000000000000, 8.000000000000000000 ) ) ;
#219 = CARTESIAN_POINT ( 'NONE',  ( 0.000000000000000000, 0.000000000000000000, 8.000000000000000000 ) ) ;
#220 = AXIS2_PLACEMENT_3D ( 'NONE', #219, #77, #158 ) ;
#221 = AXIS2_PLACEMENT_3D ( 'NONE', #1, #81, #239 ) ;
#222 = EDGE_CURVE ( 'NONE', #75, #149, #61, .T. ) ;
#223 = ORIENTED_EDGE ( 'NONE', *, *, #119, .T. ) ;
#224 = PERSON ( 'NEURÈENÝ', 'NEURÈENÝ', 'NEURÈENÝ', ('NEURÈENÝ'), ('NEURÈENÝ'), ('NEURÈENÝ') ) ;
#225 = PERSON_AND_ORGANIZATION_ROLE ( 'classification_officer' ) ;
#226 = APPROVAL ( #228, 'NEURÈENÝ' ) ;
#227 = FACE_OUTER_BOUND ( 'NONE', #72, .T. ) ;
#228 = APPROVAL_STATUS ( 'not_yet_approved' ) ;
#229 = LINE ( 'NONE', #13, #96 ) ;
#230 = COORDINATED_UNIVERSAL_TIME_OFFSET ( 1, 0, .AHEAD. ) ;
#231 = EDGE_LOOP ( 'NONE', ( #132, #7 ) ) ;
#232 = AXIS2_PLACEMENT_3D ( 'NONE', #172, #249, #251 ) ;
#233 = ADVANCED_FACE ( 'NONE', ( #103, #184 ), #106, .T. ) ;
#234 = APPROVAL_DATE_TIME ( #193, #226 ) ;
#235 = ORIENTED_EDGE ( 'NONE', *, *, #217, .F. ) ;
#236 = ORIENTED_EDGE ( 'NONE', *, *, #171, .T. ) ;
#237 = AXIS2_PLACEMENT_3D ( 'NONE', #140, #143, #3 ) ;
#238 = CARTESIAN_POINT ( 'NONE',  ( 10.00000000000000178, 1.224646799147353454E-15, 100.0000000000000000 ) ) ;
#239 = DIRECTION ( 'NONE',  ( 1.000000000000000000, 0.000000000000000000, 0.000000000000000000 ) ) ;
#240 = AXIS2_PLACEMENT_3D ( 'NONE', #55, #161, #136 ) ;
#241 = DIRECTION ( 'NONE',  ( 1.000000000000000000, 0.000000000000000000, 0.000000000000000000 ) ) ;
#242 = DIRECTION ( 'NONE',  ( 1.000000000000000000, 0.000000000000000000, 0.000000000000000000 ) ) ;
#243 = MECHANICAL_CONTEXT ( 'NONE', #207, 'mechanical' ) ;
#244 = ORIENTED_EDGE ( 'NONE', *, *, #119, .F. ) ;
#245 = DATE_TIME_ROLE ( 'classification_date' ) ;
#246 = EDGE_LOOP ( 'NONE', ( #90, #155, #46, #97 ) ) ;
#247 = APPROVAL_STATUS ( 'not_yet_approved' ) ;
#248 = ADVANCED_BREP_SHAPE_REPRESENTATION ( '92a4', ( #22, #6 ), #80 ) ;
#249 = DIRECTION ( 'NONE',  ( -0.000000000000000000, -0.000000000000000000, -1.000000000000000000 ) ) ;
#250 = COORDINATED_UNIVERSAL_TIME_OFFSET ( 1, 0, .AHEAD. ) ;
#251 = DIRECTION ( 'NONE',  ( -1.000000000000000000, 0.000000000000000000, 0.000000000000000000 ) ) ;
#252 = CIRCLE ( 'NONE', #118, 13.00000000000000178 ) ;
#253 = DIRECTION ( 'NONE',  ( 0.000000000000000000, 0.000000000000000000, 1.000000000000000000 ) ) ;
#254 = LOCAL_TIME ( 11, 36, 56.00000000000000000, #45 ) ;
#255 = DIRECTION ( 'NONE',  ( 0.000000000000000000, 0.000000000000000000, 1.000000000000000000 ) ) ;
ENDSEC;
END-ISO-10303-21;
