ISO-10303-21;
HEADER;
FILE_DESCRIPTION (( 'STEP AP203' ),
    '1' );
FILE_NAME ('6c47.STEP',
    '2023-02-12T11:51:02',
    ( '' ),
    ( '' ),
    'SwSTEP 2.0',
    'SolidWorks 2019',
    '' );
FILE_SCHEMA (( 'CONFIG_CONTROL_DESIGN' ));
ENDSEC;

DATA;
#1 = EDGE_CURVE ( 'NONE', #157, #124, #177, .T. ) ;
#2 = DIRECTION ( 'NONE',  ( 0.000000000000000000, 0.000000000000000000, 1.000000000000000000 ) ) ;
#3 =( NAMED_UNIT ( * ) PLANE_ANGLE_UNIT ( ) SI_UNIT ( $, .RADIAN. ) );
#4 = VERTEX_POINT ( 'NONE', #218 ) ;
#5 = CIRCLE ( 'NONE', #127, 2.500000000000000000 ) ;
#6 = LOCAL_TIME ( 12, 51, 2.000000000000000000, #47 ) ;
#7 = DIRECTION ( 'NONE',  ( -0.000000000000000000, -0.000000000000000000, -1.000000000000000000 ) ) ;
#8 = APPROVAL_DATE_TIME ( #11, #235 ) ;
#9 = CARTESIAN_POINT ( 'NONE',  ( 5.000000000000000000, 6.123233995736766282E-16, 0.000000000000000000 ) ) ;
#10 = APPROVAL ( #44, 'NEURÈENÝ' ) ;
#11 = DATE_AND_TIME ( #56, #118 ) ;
#12 = DIRECTION ( 'NONE',  ( 1.000000000000000000, 0.000000000000000000, -0.000000000000000000 ) ) ;
#13 = AXIS2_PLACEMENT_3D ( 'NONE', #95, #42, #128 ) ;
#14 = APPROVAL_PERSON_ORGANIZATION ( #239, #69, #244 ) ;
#15 = LINE ( 'NONE', #97, #227 ) ;
#16 = CARTESIAN_POINT ( 'NONE',  ( 0.000000000000000000, 0.000000000000000000, 3.000000000000000000 ) ) ;
#17 = ADVANCED_FACE ( 'NONE', ( #183 ), #223, .T. ) ;
#18 = PRODUCT_RELATED_PRODUCT_CATEGORY ( 'detail', '', ( #96 ) ) ;
#19 = CIRCLE ( 'NONE', #60, 2.500000000000000000 ) ;
#20 = ORIENTED_EDGE ( 'NONE', *, *, #117, .T. ) ;
#21 = VERTEX_POINT ( 'NONE', #52 ) ;
#22 = PERSON_AND_ORGANIZATION_ROLE ( 'design_owner' ) ;
#23 = DATE_TIME_ROLE ( 'classification_date' ) ;
#24 = MECHANICAL_CONTEXT ( 'NONE', #137, 'mechanical' ) ;
#25 = CC_DESIGN_DATE_AND_TIME_ASSIGNMENT ( #230, #23, ( #190 ) ) ;
#26 = EDGE_LOOP ( 'NONE', ( #31, #43, #130, #105 ) ) ;
#27 = CARTESIAN_POINT ( 'NONE',  ( -2.500000000000000000, 0.000000000000000000, 315.0000000000000000 ) ) ;
#28 = CC_DESIGN_PERSON_AND_ORGANIZATION_ASSIGNMENT ( #232, #125, ( #119 ) ) ;
#29 = DIRECTION ( 'NONE',  ( -0.000000000000000000, -0.000000000000000000, -1.000000000000000000 ) ) ;
#30 = COORDINATED_UNIVERSAL_TIME_OFFSET ( 1, 0, .AHEAD. ) ;
#31 = ORIENTED_EDGE ( 'NONE', *, *, #153, .F. ) ;
#32 = DIRECTION ( 'NONE',  ( 1.000000000000000000, 0.000000000000000000, -0.000000000000000000 ) ) ;
#33 = COORDINATED_UNIVERSAL_TIME_OFFSET ( 1, 0, .AHEAD. ) ;
#34 = DIRECTION ( 'NONE',  ( -1.000000000000000000, 0.000000000000000000, 0.000000000000000000 ) ) ;
#35 = CARTESIAN_POINT ( 'NONE',  ( 0.000000000000000000, 0.000000000000000000, 0.000000000000000000 ) ) ;
#36 = ORIENTED_EDGE ( 'NONE', *, *, #58, .T. ) ;
#37 = AXIS2_PLACEMENT_3D ( 'NONE', #89, #162, #113 ) ;
#38 = ORIENTED_EDGE ( 'NONE', *, *, #64, .F. ) ;
#39 = VECTOR ( 'NONE', #7, 1000.000000000000000 ) ;
#40 = PERSON_AND_ORGANIZATION_ROLE ( 'classification_officer' ) ;
#41 = AXIS2_PLACEMENT_3D ( 'NONE', #93, #59, #34 ) ;
#42 = DIRECTION ( 'NONE',  ( 0.000000000000000000, 0.000000000000000000, 1.000000000000000000 ) ) ;
#43 = ORIENTED_EDGE ( 'NONE', *, *, #117, .F. ) ;
#44 = APPROVAL_STATUS ( 'not_yet_approved' ) ;
#45 = EDGE_CURVE ( 'NONE', #254, #4, #201, .T. ) ;
#46 = ORIENTED_EDGE ( 'NONE', *, *, #58, .F. ) ;
#47 = COORDINATED_UNIVERSAL_TIME_OFFSET ( 1, 0, .AHEAD. ) ;
#48 = ORIENTED_EDGE ( 'NONE', *, *, #184, .F. ) ;
#49 = EDGE_CURVE ( 'NONE', #220, #157, #163, .T. ) ;
#50 = VERTEX_POINT ( 'NONE', #188 ) ;
#51 = ADVANCED_BREP_SHAPE_REPRESENTATION ( '6c47', ( #199, #76 ), #122 ) ;
#52 = CARTESIAN_POINT ( 'NONE',  ( 2.500000000000000000, 3.061616997868383141E-16, 3.000000000000000000 ) ) ;
#53 = AXIS2_PLACEMENT_3D ( 'NONE', #129, #203, #186 ) ;
#54 = DATE_AND_TIME ( #205, #135 ) ;
#55 = ORIENTED_EDGE ( 'NONE', *, *, #45, .T. ) ;
#56 = CALENDAR_DATE ( 2023, 12, 2 ) ;
#57 = APPROVAL_STATUS ( 'not_yet_approved' ) ;
#58 = EDGE_CURVE ( 'NONE', #254, #50, #19, .T. ) ;
#59 = DIRECTION ( 'NONE',  ( -0.000000000000000000, -0.000000000000000000, -1.000000000000000000 ) ) ;
#60 = AXIS2_PLACEMENT_3D ( 'NONE', #71, #108, #110 ) ;
#61 = PRODUCT_DEFINITION_SHAPE ( 'NONE', 'NONE',  #208 ) ;
#62 = CARTESIAN_POINT ( 'NONE',  ( -5.000000000000000000, 0.000000000000000000, 3.000000000000000000 ) ) ;
#63 = APPROVAL_ROLE ( '' ) ;
#64 = EDGE_CURVE ( 'NONE', #4, #21, #168, .T. ) ;
#65 = DIRECTION ( 'NONE',  ( 1.000000000000000000, 0.000000000000000000, 0.000000000000000000 ) ) ;
#66 = EDGE_CURVE ( 'NONE', #124, #157, #245, .T. ) ;
#67 = ORIENTED_EDGE ( 'NONE', *, *, #225, .F. ) ;
#68 = PERSON_AND_ORGANIZATION ( #192, #213 ) ;
#69 = APPROVAL ( #57, 'NEURÈENÝ' ) ;
#70 = CARTESIAN_POINT ( 'NONE',  ( 0.000000000000000000, 0.000000000000000000, 3.000000000000000000 ) ) ;
#71 = CARTESIAN_POINT ( 'NONE',  ( 0.000000000000000000, 0.000000000000000000, 315.0000000000000000 ) ) ;
#72 = APPROVAL_ROLE ( '' ) ;
#73 = DIRECTION ( 'NONE',  ( -0.000000000000000000, -0.000000000000000000, -1.000000000000000000 ) ) ;
#74 = DIRECTION ( 'NONE',  ( -0.000000000000000000, -0.000000000000000000, -1.000000000000000000 ) ) ;
#75 = VECTOR ( 'NONE', #224, 1000.000000000000000 ) ;
#76 = AXIS2_PLACEMENT_3D ( 'NONE', #212, #160, #65 ) ;
#77 = DIRECTION ( 'NONE',  ( 0.000000000000000000, 0.000000000000000000, 1.000000000000000000 ) ) ;
#78 = CARTESIAN_POINT ( 'NONE',  ( 0.000000000000000000, 0.000000000000000000, 3.000000000000000000 ) ) ;
#79 = AXIS2_PLACEMENT_3D ( 'NONE', #35, #98, #80 ) ;
#80 = DIRECTION ( 'NONE',  ( 1.000000000000000000, 0.000000000000000000, -0.000000000000000000 ) ) ;
#81 = ADVANCED_FACE ( 'NONE', ( #236 ), #109, .T. ) ;
#82 = PERSON_AND_ORGANIZATION ( #192, #213 ) ;
#83 = ORIENTED_EDGE ( 'NONE', *, *, #250, .T. ) ;
#84 = CALENDAR_DATE ( 2023, 12, 2 ) ;
#85 = APPROVAL_DATE_TIME ( #180, #10 ) ;
#86 = EDGE_LOOP ( 'NONE', ( #48, #176, #106, #103 ) ) ;
#87 = CC_DESIGN_PERSON_AND_ORGANIZATION_ASSIGNMENT ( #82, #234, ( #119 ) ) ;
#88 = DIRECTION ( 'NONE',  ( 1.000000000000000000, 0.000000000000000000, 0.000000000000000000 ) ) ;
#89 = CARTESIAN_POINT ( 'NONE',  ( 0.000000000000000000, 0.000000000000000000, 3.000000000000000000 ) ) ;
#90 = AXIS2_PLACEMENT_3D ( 'NONE', #228, #77, #152 ) ;
#91 = EDGE_LOOP ( 'NONE', ( #67, #46, #55, #178 ) ) ;
#92 = LINE ( 'NONE', #165, #75 ) ;
#93 = CARTESIAN_POINT ( 'NONE',  ( 0.000000000000000000, 0.000000000000000000, 3.000000000000000000 ) ) ;
#94 = CC_DESIGN_APPROVAL ( #69, ( #119 ) ) ;
#95 = CARTESIAN_POINT ( 'NONE',  ( 0.000000000000000000, 0.000000000000000000, 3.000000000000000000 ) ) ;
#96 = PRODUCT ( '6c47', '6c47', '', ( #24 ) ) ;
#97 = CARTESIAN_POINT ( 'NONE',  ( 2.500000000000000000, 3.061616997868383141E-16, 315.0000000000000000 ) ) ;
#98 = DIRECTION ( 'NONE',  ( 0.000000000000000000, 0.000000000000000000, 1.000000000000000000 ) ) ;
#99 = AXIS2_PLACEMENT_3D ( 'NONE', #16, #243, #32 ) ;
#100 = LOCAL_TIME ( 12, 51, 2.000000000000000000, #253 ) ;
#101 = CC_DESIGN_PERSON_AND_ORGANIZATION_ASSIGNMENT ( #68, #22, ( #96 ) ) ;
#102 = EDGE_LOOP ( 'NONE', ( #20, #83 ) ) ;
#103 = ORIENTED_EDGE ( 'NONE', *, *, #45, .F. ) ;
#104 = CALENDAR_DATE ( 2023, 12, 2 ) ;
#105 = ORIENTED_EDGE ( 'NONE', *, *, #1, .T. ) ;
#106 = ORIENTED_EDGE ( 'NONE', *, *, #172, .T. ) ;
#107 = PERSON_AND_ORGANIZATION ( #192, #213 ) ;
#108 = DIRECTION ( 'NONE',  ( 0.000000000000000000, 0.000000000000000000, 1.000000000000000000 ) ) ;
#109 = CYLINDRICAL_SURFACE ( 'NONE', #133, 5.000000000000000000 ) ;
#110 = DIRECTION ( 'NONE',  ( 1.000000000000000000, 0.000000000000000000, 0.000000000000000000 ) ) ;
#111 = CALENDAR_DATE ( 2023, 12, 2 ) ;
#112 = ADVANCED_FACE ( 'NONE', ( #219 ), #134, .T. ) ;
#113 = DIRECTION ( 'NONE',  ( 1.000000000000000000, 0.000000000000000000, 0.000000000000000000 ) ) ;
#114 = DATE_TIME_ROLE ( 'creation_date' ) ;
#115 = FACE_OUTER_BOUND ( 'NONE', #102, .T. ) ;
#116 = CARTESIAN_POINT ( 'NONE',  ( 0.000000000000000000, 0.000000000000000000, 315.0000000000000000 ) ) ;
#117 = EDGE_CURVE ( 'NONE', #220, #181, #255, .T. ) ;
#118 = LOCAL_TIME ( 12, 51, 2.000000000000000000, #30 ) ;
#119 = PRODUCT_DEFINITION_FORMATION_WITH_SPECIFIED_SOURCE ( 'LIBOVOLNÝ', '', #96, .NOT_KNOWN. ) ;
#120 = CC_DESIGN_PERSON_AND_ORGANIZATION_ASSIGNMENT ( #146, #40, ( #190 ) ) ;
#121 =( LENGTH_UNIT ( ) NAMED_UNIT ( * ) SI_UNIT ( .MILLI., .METRE. ) );
#122 =( GEOMETRIC_REPRESENTATION_CONTEXT ( 3 ) GLOBAL_UNCERTAINTY_ASSIGNED_CONTEXT ( ( #143 ) ) GLOBAL_UNIT_ASSIGNED_CONTEXT ( ( #121, #3, #175 ) ) REPRESENTATION_CONTEXT ( 'NONE', 'WORKASPACE' ) );
#123 = CC_DESIGN_DATE_AND_TIME_ASSIGNMENT ( #222, #114, ( #208 ) ) ;
#124 = VERTEX_POINT ( 'NONE', #9 ) ;
#125 = PERSON_AND_ORGANIZATION_ROLE ( 'creator' ) ;
#126 = COORDINATED_UNIVERSAL_TIME_OFFSET ( 1, 0, .AHEAD. ) ;
#127 = AXIS2_PLACEMENT_3D ( 'NONE', #78, #136, #139 ) ;
#128 = DIRECTION ( 'NONE',  ( 1.000000000000000000, 0.000000000000000000, 0.000000000000000000 ) ) ;
#129 = CARTESIAN_POINT ( 'NONE',  ( 0.000000000000000000, 0.000000000000000000, 315.0000000000000000 ) ) ;
#130 = ORIENTED_EDGE ( 'NONE', *, *, #49, .T. ) ;
#131 = ORIENTED_EDGE ( 'NONE', *, *, #184, .T. ) ;
#132 = APPROVAL_STATUS ( 'not_yet_approved' ) ;
#133 = AXIS2_PLACEMENT_3D ( 'NONE', #70, #74, #148 ) ;
#134 = CYLINDRICAL_SURFACE ( 'NONE', #53, 2.500000000000000000 ) ;
#135 = LOCAL_TIME ( 12, 51, 2.000000000000000000, #33 ) ;
#136 = DIRECTION ( 'NONE',  ( 0.000000000000000000, 0.000000000000000000, 1.000000000000000000 ) ) ;
#137 = APPLICATION_CONTEXT ( 'configuration controlled 3d designs of mechanical parts and assemblies' ) ;
#138 = LOCAL_TIME ( 12, 51, 2.000000000000000000, #126 ) ;
#139 = DIRECTION ( 'NONE',  ( 1.000000000000000000, 0.000000000000000000, 0.000000000000000000 ) ) ;
#140 = ORIENTED_EDGE ( 'NONE', *, *, #172, .F. ) ;
#141 = ORIENTED_EDGE ( 'NONE', *, *, #66, .F. ) ;
#142 = AXIS2_PLACEMENT_3D ( 'NONE', #159, #240, #200 ) ;
#143 = UNCERTAINTY_MEASURE_WITH_UNIT (LENGTH_MEASURE( 1.000000000000000082E-05 ), #121, 'distance_accuracy_value', 'NONE');
#144 = APPLICATION_PROTOCOL_DEFINITION ( 'international standard', 'config_control_design', 1994, #137 ) ;
#145 = EDGE_LOOP ( 'NONE', ( #38, #140 ) ) ;
#146 = PERSON_AND_ORGANIZATION ( #192, #213 ) ;
#147 = PERSON_AND_ORGANIZATION_ROLE ( 'creator' ) ;
#148 = DIRECTION ( 'NONE',  ( -1.000000000000000000, 0.000000000000000000, 0.000000000000000000 ) ) ;
#149 = EDGE_LOOP ( 'NONE', ( #221, #141 ) ) ;
#150 = CARTESIAN_POINT ( 'NONE',  ( 0.000000000000000000, 0.000000000000000000, 0.000000000000000000 ) ) ;
#151 = EDGE_LOOP ( 'NONE', ( #179, #216, #166, #156 ) ) ;
#152 = DIRECTION ( 'NONE',  ( 1.000000000000000000, 0.000000000000000000, 0.000000000000000000 ) ) ;
#153 = EDGE_CURVE ( 'NONE', #181, #124, #92, .T. ) ;
#154 = FACE_OUTER_BOUND ( 'NONE', #252, .T. ) ;
#155 = SECURITY_CLASSIFICATION_LEVEL ( 'unclassified' ) ;
#156 = ORIENTED_EDGE ( 'NONE', *, *, #49, .F. ) ;
#157 = VERTEX_POINT ( 'NONE', #226 ) ;
#158 = CARTESIAN_POINT ( 'NONE',  ( 0.000000000000000000, 0.000000000000000000, 315.0000000000000000 ) ) ;
#159 = CARTESIAN_POINT ( 'NONE',  ( 0.000000000000000000, 0.000000000000000000, 0.000000000000000000 ) ) ;
#160 = DIRECTION ( 'NONE',  ( 0.000000000000000000, 0.000000000000000000, 1.000000000000000000 ) ) ;
#161 = AXIS2_PLACEMENT_3D ( 'NONE', #150, #191, #242 ) ;
#162 = DIRECTION ( 'NONE',  ( 0.000000000000000000, 0.000000000000000000, 1.000000000000000000 ) ) ;
#163 = LINE ( 'NONE', #204, #214 ) ;
#164 = SHAPE_DEFINITION_REPRESENTATION ( #61, #51 ) ;
#165 = CARTESIAN_POINT ( 'NONE',  ( 5.000000000000000000, 6.123233995736766282E-16, 3.000000000000000000 ) ) ;
#166 = ORIENTED_EDGE ( 'NONE', *, *, #66, .T. ) ;
#167 = DESIGN_CONTEXT ( 'detailed design', #202, 'design' ) ;
#168 = CIRCLE ( 'NONE', #187, 2.500000000000000000 ) ;
#169 = DIRECTION ( 'NONE',  ( 0.000000000000000000, 0.000000000000000000, 1.000000000000000000 ) ) ;
#170 = APPROVAL_PERSON_ORGANIZATION ( #207, #235, #72 ) ;
#171 = PLANE ( 'NONE',  #99 ) ;
#172 = EDGE_CURVE ( 'NONE', #21, #4, #5, .T. ) ;
#173 = FACE_OUTER_BOUND ( 'NONE', #149, .T. ) ;
#174 = CIRCLE ( 'NONE', #13, 5.000000000000000000 ) ;
#175 =( NAMED_UNIT ( * ) SI_UNIT ( $, .STERADIAN. ) SOLID_ANGLE_UNIT ( ) );
#176 = ORIENTED_EDGE ( 'NONE', *, *, #225, .T. ) ;
#177 = CIRCLE ( 'NONE', #161, 5.000000000000000000 ) ;
#178 = ORIENTED_EDGE ( 'NONE', *, *, #64, .T. ) ;
#179 = ORIENTED_EDGE ( 'NONE', *, *, #250, .F. ) ;
#180 = DATE_AND_TIME ( #104, #138 ) ;
#181 = VERTEX_POINT ( 'NONE', #196 ) ;
#182 = CC_DESIGN_APPROVAL ( #10, ( #208 ) ) ;
#183 = FACE_OUTER_BOUND ( 'NONE', #86, .T. ) ;
#184 = EDGE_CURVE ( 'NONE', #50, #254, #198, .T. ) ;
#185 = CARTESIAN_POINT ( 'NONE',  ( -2.500000000000000000, 0.000000000000000000, 315.0000000000000000 ) ) ;
#186 = DIRECTION ( 'NONE',  ( -1.000000000000000000, 0.000000000000000000, 0.000000000000000000 ) ) ;
#187 = AXIS2_PLACEMENT_3D ( 'NONE', #233, #2, #88 ) ;
#188 = CARTESIAN_POINT ( 'NONE',  ( 2.500000000000000000, 3.061616997868383141E-16, 315.0000000000000000 ) ) ;
#189 = CLOSED_SHELL ( 'NONE', ( #17, #81, #229, #211, #241, #112, #248 ) ) ;
#190 = SECURITY_CLASSIFICATION ( '', '', #155 ) ;
#191 = DIRECTION ( 'NONE',  ( 0.000000000000000000, 0.000000000000000000, 1.000000000000000000 ) ) ;
#192 = PERSON ( 'NEURÈENÝ', 'NEURÈENÝ', 'NEURÈENÝ', ('NEURÈENÝ'), ('NEURÈENÝ'), ('NEURÈENÝ') ) ;
#193 = APPROVAL_DATE_TIME ( #54, #69 ) ;
#194 = FACE_OUTER_BOUND ( 'NONE', #26, .T. ) ;
#195 = PLANE ( 'NONE',  #215 ) ;
#196 = CARTESIAN_POINT ( 'NONE',  ( 5.000000000000000000, 6.123233995736766282E-16, 3.000000000000000000 ) ) ;
#197 = CC_DESIGN_PERSON_AND_ORGANIZATION_ASSIGNMENT ( #107, #147, ( #208 ) ) ;
#198 = CIRCLE ( 'NONE', #90, 2.500000000000000000 ) ;
#199 = MANIFOLD_SOLID_BREP ( 'Pøidat vysunutím3', #189 ) ;
#200 = DIRECTION ( 'NONE',  ( 1.000000000000000000, 0.000000000000000000, 0.000000000000000000 ) ) ;
#201 = LINE ( 'NONE', #27, #39 ) ;
#202 = APPLICATION_CONTEXT ( 'configuration controlled 3d designs of mechanical parts and assemblies' ) ;
#203 = DIRECTION ( 'NONE',  ( -0.000000000000000000, -0.000000000000000000, -1.000000000000000000 ) ) ;
#204 = CARTESIAN_POINT ( 'NONE',  ( -5.000000000000000000, 0.000000000000000000, 3.000000000000000000 ) ) ;
#205 = CALENDAR_DATE ( 2023, 12, 2 ) ;
#206 = DIRECTION ( 'NONE',  ( -1.000000000000000000, 0.000000000000000000, 0.000000000000000000 ) ) ;
#207 = PERSON_AND_ORGANIZATION ( #192, #213 ) ;
#208 = PRODUCT_DEFINITION ( 'NEZNÁMÝ', '', #119, #167 ) ;
#209 = DIRECTION ( 'NONE',  ( -0.000000000000000000, -0.000000000000000000, -1.000000000000000000 ) ) ;
#210 = FACE_BOUND ( 'NONE', #145, .T. ) ;
#211 = ADVANCED_FACE ( 'NONE', ( #210, #115 ), #171, .T. ) ;
#212 = CARTESIAN_POINT ( 'NONE',  ( 0.000000000000000000, 0.000000000000000000, 0.000000000000000000 ) ) ;
#213 = ORGANIZATION ( 'NEURÈENÝ', 'NEURÈENÝ', '' ) ;
#214 = VECTOR ( 'NONE', #29, 1000.000000000000000 ) ;
#215 = AXIS2_PLACEMENT_3D ( 'NONE', #116, #169, #12 ) ;
#216 = ORIENTED_EDGE ( 'NONE', *, *, #153, .T. ) ;
#217 = PERSON_AND_ORGANIZATION ( #192, #213 ) ;
#218 = CARTESIAN_POINT ( 'NONE',  ( -2.500000000000000000, 0.000000000000000000, 3.000000000000000000 ) ) ;
#219 = FACE_OUTER_BOUND ( 'NONE', #91, .T. ) ;
#220 = VERTEX_POINT ( 'NONE', #62 ) ;
#221 = ORIENTED_EDGE ( 'NONE', *, *, #1, .F. ) ;
#222 = DATE_AND_TIME ( #111, #6 ) ;
#223 = CYLINDRICAL_SURFACE ( 'NONE', #237, 2.500000000000000000 ) ;
#224 = DIRECTION ( 'NONE',  ( -0.000000000000000000, -0.000000000000000000, -1.000000000000000000 ) ) ;
#225 = EDGE_CURVE ( 'NONE', #50, #21, #15, .T. ) ;
#226 = CARTESIAN_POINT ( 'NONE',  ( -5.000000000000000000, 0.000000000000000000, 0.000000000000000000 ) ) ;
#227 = VECTOR ( 'NONE', #209, 1000.000000000000000 ) ;
#228 = CARTESIAN_POINT ( 'NONE',  ( 0.000000000000000000, 0.000000000000000000, 315.0000000000000000 ) ) ;
#229 = ADVANCED_FACE ( 'NONE', ( #194 ), #247, .T. ) ;
#230 = DATE_AND_TIME ( #84, #100 ) ;
#231 = APPLICATION_PROTOCOL_DEFINITION ( 'international standard', 'config_control_design', 1994, #202 ) ;
#232 = PERSON_AND_ORGANIZATION ( #192, #213 ) ;
#233 = CARTESIAN_POINT ( 'NONE',  ( 0.000000000000000000, 0.000000000000000000, 3.000000000000000000 ) ) ;
#234 = PERSON_AND_ORGANIZATION_ROLE ( 'design_supplier' ) ;
#235 = APPROVAL ( #132, 'NEURÈENÝ' ) ;
#236 = FACE_OUTER_BOUND ( 'NONE', #151, .T. ) ;
#237 = AXIS2_PLACEMENT_3D ( 'NONE', #158, #73, #206 ) ;
#238 = CC_DESIGN_SECURITY_CLASSIFICATION ( #190, ( #119 ) ) ;
#239 = PERSON_AND_ORGANIZATION ( #192, #213 ) ;
#240 = DIRECTION ( 'NONE',  ( 0.000000000000000000, 0.000000000000000000, 1.000000000000000000 ) ) ;
#241 = ADVANCED_FACE ( 'NONE', ( #173 ), #246, .F. ) ;
#242 = DIRECTION ( 'NONE',  ( 1.000000000000000000, 0.000000000000000000, 0.000000000000000000 ) ) ;
#243 = DIRECTION ( 'NONE',  ( 0.000000000000000000, 0.000000000000000000, 1.000000000000000000 ) ) ;
#244 = APPROVAL_ROLE ( '' ) ;
#245 = CIRCLE ( 'NONE', #142, 5.000000000000000000 ) ;
#246 = PLANE ( 'NONE',  #79 ) ;
#247 = CYLINDRICAL_SURFACE ( 'NONE', #41, 5.000000000000000000 ) ;
#248 = ADVANCED_FACE ( 'NONE', ( #154 ), #195, .T. ) ;
#249 = CC_DESIGN_APPROVAL ( #235, ( #190 ) ) ;
#250 = EDGE_CURVE ( 'NONE', #181, #220, #174, .T. ) ;
#251 = APPROVAL_PERSON_ORGANIZATION ( #217, #10, #63 ) ;
#252 = EDGE_LOOP ( 'NONE', ( #36, #131 ) ) ;
#253 = COORDINATED_UNIVERSAL_TIME_OFFSET ( 1, 0, .AHEAD. ) ;
#254 = VERTEX_POINT ( 'NONE', #185 ) ;
#255 = CIRCLE ( 'NONE', #37, 5.000000000000000000 ) ;
ENDSEC;
END-ISO-10303-21;
