ISO-10303-21;
HEADER;
FILE_DESCRIPTION (( 'STEP AP203' ),
    '1' );
FILE_NAME ('28e5.STEP',
    '2023-02-12T11:29:53',
    ( '' ),
    ( '' ),
    'SwSTEP 2.0',
    'SolidWorks 2019',
    '' );
FILE_SCHEMA (( 'CONFIG_CONTROL_DESIGN' ));
ENDSEC;

DATA;
#1 = AXIS2_PLACEMENT_3D ( 'NONE', #42, #122, #197 ) ;
#2 = ADVANCED_FACE ( 'NONE', ( #206 ), #109, .T. ) ;
#3 = AXIS2_PLACEMENT_3D ( 'NONE', #10, #89, #183 ) ;
#4 = PERSON ( 'NEURÈENÝ', 'NEURÈENÝ', 'NEURÈENÝ', ('NEURÈENÝ'), ('NEURÈENÝ'), ('NEURÈENÝ') ) ;
#5 = PERSON_AND_ORGANIZATION ( #4, #184 ) ;
#6 = CALENDAR_DATE ( 2023, 12, 2 ) ;
#7 = CARTESIAN_POINT ( 'NONE',  ( 0.000000000000000000, 0.000000000000000000, 5.000000000000000000 ) ) ;
#8 = CC_DESIGN_PERSON_AND_ORGANIZATION_ASSIGNMENT ( #177, #41, ( #20 ) ) ;
#9 = DIRECTION ( 'NONE',  ( 1.000000000000000000, 0.000000000000000000, 0.000000000000000000 ) ) ;
#10 = CARTESIAN_POINT ( 'NONE',  ( 0.000000000000000000, 0.000000000000000000, 5.000000000000000000 ) ) ;
#11 =( NAMED_UNIT ( * ) SI_UNIT ( $, .STERADIAN. ) SOLID_ANGLE_UNIT ( ) );
#12 = CC_DESIGN_PERSON_AND_ORGANIZATION_ASSIGNMENT ( #45, #181, ( #84 ) ) ;
#13 = DIRECTION ( 'NONE',  ( -0.000000000000000000, -0.000000000000000000, -1.000000000000000000 ) ) ;
#14 = VERTEX_POINT ( 'NONE', #227 ) ;
#15 = CLOSED_SHELL ( 'NONE', ( #60, #58, #115, #32, #189, #2, #160 ) ) ;
#16 = CIRCLE ( 'NONE', #223, 6.000000000000000888 ) ;
#17 = FACE_OUTER_BOUND ( 'NONE', #113, .T. ) ;
#18 = PERSON_AND_ORGANIZATION_ROLE ( 'creator' ) ;
#19 = CARTESIAN_POINT ( 'NONE',  ( 0.000000000000000000, 0.000000000000000000, 125.0000000000000000 ) ) ;
#20 = PRODUCT ( '28e5', '28e5', '', ( #40 ) ) ;
#21 = CIRCLE ( 'NONE', #218, 3.500000000000000000 ) ;
#22 = PERSON_AND_ORGANIZATION ( #4, #184 ) ;
#23 = CARTESIAN_POINT ( 'NONE',  ( 0.000000000000000000, 0.000000000000000000, 0.000000000000000000 ) ) ;
#24 = CC_DESIGN_PERSON_AND_ORGANIZATION_ASSIGNMENT ( #95, #18, ( #78 ) ) ;
#25 = DIRECTION ( 'NONE',  ( 0.000000000000000000, 0.000000000000000000, 1.000000000000000000 ) ) ;
#26 = CARTESIAN_POINT ( 'NONE',  ( -3.500000000000000000, 0.000000000000000000, 125.0000000000000000 ) ) ;
#27 = CARTESIAN_POINT ( 'NONE',  ( -6.000000000000000888, 0.000000000000000000, 0.000000000000000000 ) ) ;
#28 = EDGE_CURVE ( 'NONE', #148, #90, #116, .T. ) ;
#29 = CARTESIAN_POINT ( 'NONE',  ( 0.000000000000000000, 0.000000000000000000, 5.000000000000000000 ) ) ;
#30 = PERSON_AND_ORGANIZATION ( #4, #184 ) ;
#31 = DIRECTION ( 'NONE',  ( -0.000000000000000000, -0.000000000000000000, -1.000000000000000000 ) ) ;
#32 = ADVANCED_FACE ( 'NONE', ( #217, #38 ), #155, .T. ) ;
#33 = ORIENTED_EDGE ( 'NONE', *, *, #200, .F. ) ;
#34 = ORIENTED_EDGE ( 'NONE', *, *, #171, .T. ) ;
#35 = LOCAL_TIME ( 12, 29, 53.00000000000000000, #64 ) ;
#36 = DIRECTION ( 'NONE',  ( 1.000000000000000000, 0.000000000000000000, -0.000000000000000000 ) ) ;
#37 = PRODUCT_RELATED_PRODUCT_CATEGORY ( 'detail', '', ( #20 ) ) ;
#38 = FACE_OUTER_BOUND ( 'NONE', #92, .T. ) ;
#39 = VECTOR ( 'NONE', #13, 1000.000000000000000 ) ;
#40 = MECHANICAL_CONTEXT ( 'NONE', #54, 'mechanical' ) ;
#41 = PERSON_AND_ORGANIZATION_ROLE ( 'design_owner' ) ;
#42 = CARTESIAN_POINT ( 'NONE',  ( 0.000000000000000000, 0.000000000000000000, 5.000000000000000000 ) ) ;
#43 = PERSON_AND_ORGANIZATION ( #4, #184 ) ;
#44 = LOCAL_TIME ( 12, 29, 53.00000000000000000, #178 ) ;
#45 = PERSON_AND_ORGANIZATION ( #4, #184 ) ;
#46 = CIRCLE ( 'NONE', #50, 3.500000000000000000 ) ;
#47 = CARTESIAN_POINT ( 'NONE',  ( 0.000000000000000000, 0.000000000000000000, 0.000000000000000000 ) ) ;
#48 = FACE_OUTER_BOUND ( 'NONE', #91, .T. ) ;
#49 = DATE_AND_TIME ( #221, #56 ) ;
#50 = AXIS2_PLACEMENT_3D ( 'NONE', #29, #25, #82 ) ;
#51 = DIRECTION ( 'NONE',  ( 0.000000000000000000, 0.000000000000000000, 1.000000000000000000 ) ) ;
#52 = ORIENTED_EDGE ( 'NONE', *, *, #210, .F. ) ;
#53 = CARTESIAN_POINT ( 'NONE',  ( 3.500000000000000000, 4.286263797015736595E-16, 5.000000000000000000 ) ) ;
#54 = APPLICATION_CONTEXT ( 'configuration controlled 3d designs of mechanical parts and assemblies' ) ;
#55 = ORIENTED_EDGE ( 'NONE', *, *, #171, .F. ) ;
#56 = LOCAL_TIME ( 12, 29, 53.00000000000000000, #102 ) ;
#57 = FACE_OUTER_BOUND ( 'NONE', #174, .T. ) ;
#58 = ADVANCED_FACE ( 'NONE', ( #212 ), #139, .T. ) ;
#59 = DIRECTION ( 'NONE',  ( -1.000000000000000000, 0.000000000000000000, 0.000000000000000000 ) ) ;
#60 = ADVANCED_FACE ( 'NONE', ( #17 ), #121, .T. ) ;
#61 = DATE_AND_TIME ( #6, #35 ) ;
#62 = LINE ( 'NONE', #205, #164 ) ;
#63 = LINE ( 'NONE', #141, #244 ) ;
#64 = COORDINATED_UNIVERSAL_TIME_OFFSET ( 1, 0, .AHEAD. ) ;
#65 =( NAMED_UNIT ( * ) PLANE_ANGLE_UNIT ( ) SI_UNIT ( $, .RADIAN. ) );
#66 = CALENDAR_DATE ( 2023, 12, 2 ) ;
#67 = ORIENTED_EDGE ( 'NONE', *, *, #249, .F. ) ;
#68 = EDGE_CURVE ( 'NONE', #162, #14, #63, .T. ) ;
#69 = ORIENTED_EDGE ( 'NONE', *, *, #200, .T. ) ;
#70 = CC_DESIGN_APPROVAL ( #204, ( #161 ) ) ;
#71 = DIRECTION ( 'NONE',  ( -0.000000000000000000, -0.000000000000000000, -1.000000000000000000 ) ) ;
#72 = ORIENTED_EDGE ( 'NONE', *, *, #236, .F. ) ;
#73 = DIRECTION ( 'NONE',  ( 1.000000000000000000, 0.000000000000000000, 0.000000000000000000 ) ) ;
#74 = ORIENTED_EDGE ( 'NONE', *, *, #210, .T. ) ;
#75 = APPROVAL_PERSON_ORGANIZATION ( #22, #204, #254 ) ;
#76 = DATE_AND_TIME ( #231, #137 ) ;
#77 = APPLICATION_CONTEXT ( 'configuration controlled 3d designs of mechanical parts and assemblies' ) ;
#78 = PRODUCT_DEFINITION ( 'NEZNÁMÝ', '', #161, #117 ) ;
#79 = AXIS2_PLACEMENT_3D ( 'NONE', #245, #71, #150 ) ;
#80 = AXIS2_PLACEMENT_3D ( 'NONE', #255, #220, #143 ) ;
#81 = DATE_TIME_ROLE ( 'classification_date' ) ;
#82 = DIRECTION ( 'NONE',  ( 1.000000000000000000, 0.000000000000000000, 0.000000000000000000 ) ) ;
#83 = SECURITY_CLASSIFICATION_LEVEL ( 'unclassified' ) ;
#84 = SECURITY_CLASSIFICATION ( '', '', #83 ) ;
#85 = ORIENTED_EDGE ( 'NONE', *, *, #159, .F. ) ;
#86 = EDGE_CURVE ( 'NONE', #14, #241, #130, .T. ) ;
#87 = APPROVAL_ROLE ( '' ) ;
#88 = ORIENTED_EDGE ( 'NONE', *, *, #159, .T. ) ;
#89 = DIRECTION ( 'NONE',  ( 0.000000000000000000, 0.000000000000000000, 1.000000000000000000 ) ) ;
#90 = VERTEX_POINT ( 'NONE', #142 ) ;
#91 = EDGE_LOOP ( 'NONE', ( #190, #72, #74, #176 ) ) ;
#92 = EDGE_LOOP ( 'NONE', ( #188, #172 ) ) ;
#93 = ORIENTED_EDGE ( 'NONE', *, *, #68, .T. ) ;
#94 = ORIENTED_EDGE ( 'NONE', *, *, #28, .T. ) ;
#95 = PERSON_AND_ORGANIZATION ( #4, #184 ) ;
#96 = DIRECTION ( 'NONE',  ( -0.000000000000000000, -0.000000000000000000, -1.000000000000000000 ) ) ;
#97 = APPROVAL_STATUS ( 'not_yet_approved' ) ;
#98 = DIRECTION ( 'NONE',  ( 0.000000000000000000, 0.000000000000000000, 1.000000000000000000 ) ) ;
#99 = EDGE_CURVE ( 'NONE', #208, #133, #123, .T. ) ;
#100 = DIRECTION ( 'NONE',  ( 0.000000000000000000, 0.000000000000000000, 1.000000000000000000 ) ) ;
#101 = AXIS2_PLACEMENT_3D ( 'NONE', #192, #156, #118 ) ;
#102 = COORDINATED_UNIVERSAL_TIME_OFFSET ( 1, 0, .AHEAD. ) ;
#103 = CC_DESIGN_DATE_AND_TIME_ASSIGNMENT ( #49, #81, ( #84 ) ) ;
#104 = ORIENTED_EDGE ( 'NONE', *, *, #144, .F. ) ;
#105 = PERSON_AND_ORGANIZATION_ROLE ( 'design_supplier' ) ;
#106 = CC_DESIGN_PERSON_AND_ORGANIZATION_ASSIGNMENT ( #129, #105, ( #161 ) ) ;
#107 = CARTESIAN_POINT ( 'NONE',  ( 0.000000000000000000, 0.000000000000000000, 125.0000000000000000 ) ) ;
#108 = AXIS2_PLACEMENT_3D ( 'NONE', #47, #125, #203 ) ;
#109 = CYLINDRICAL_SURFACE ( 'NONE', #79, 3.500000000000000000 ) ;
#110 = EDGE_LOOP ( 'NONE', ( #34, #228 ) ) ;
#111 = LINE ( 'NONE', #186, #39 ) ;
#112 = ORIENTED_EDGE ( 'NONE', *, *, #194, .T. ) ;
#113 = EDGE_LOOP ( 'NONE', ( #168, #112, #94, #85 ) ) ;
#114 = CARTESIAN_POINT ( 'NONE',  ( 6.000000000000000888, 7.347880794884120722E-16, 5.000000000000000000 ) ) ;
#115 = ADVANCED_FACE ( 'NONE', ( #48 ), #170, .T. ) ;
#116 = CIRCLE ( 'NONE', #191, 3.500000000000000000 ) ;
#117 = DESIGN_CONTEXT ( 'detailed design', #77, 'design' ) ;
#118 = DIRECTION ( 'NONE',  ( -1.000000000000000000, 0.000000000000000000, 0.000000000000000000 ) ) ;
#119 = CIRCLE ( 'NONE', #3, 6.000000000000000888 ) ;
#120 = COORDINATED_UNIVERSAL_TIME_OFFSET ( 1, 0, .AHEAD. ) ;
#121 = CYLINDRICAL_SURFACE ( 'NONE', #131, 3.500000000000000000 ) ;
#122 = DIRECTION ( 'NONE',  ( 0.000000000000000000, 0.000000000000000000, 1.000000000000000000 ) ) ;
#123 = CIRCLE ( 'NONE', #147, 3.500000000000000000 ) ;
#124 = APPROVAL_ROLE ( '' ) ;
#125 = DIRECTION ( 'NONE',  ( 0.000000000000000000, 0.000000000000000000, 1.000000000000000000 ) ) ;
#126 = CARTESIAN_POINT ( 'NONE',  ( 0.000000000000000000, 0.000000000000000000, 0.000000000000000000 ) ) ;
#127 = APPROVAL_DATE_TIME ( #146, #163 ) ;
#128 = DIRECTION ( 'NONE',  ( 0.000000000000000000, 0.000000000000000000, 1.000000000000000000 ) ) ;
#129 = PERSON_AND_ORGANIZATION ( #4, #184 ) ;
#130 = CIRCLE ( 'NONE', #237, 6.000000000000000888 ) ;
#131 = AXIS2_PLACEMENT_3D ( 'NONE', #19, #96, #59 ) ;
#132 = LINE ( 'NONE', #246, #193 ) ;
#133 = VERTEX_POINT ( 'NONE', #26 ) ;
#134 = VERTEX_POINT ( 'NONE', #222 ) ;
#135 = CARTESIAN_POINT ( 'NONE',  ( 0.000000000000000000, 0.000000000000000000, 125.0000000000000000 ) ) ;
#136 = AXIS2_PLACEMENT_3D ( 'NONE', #135, #209, #36 ) ;
#137 = LOCAL_TIME ( 12, 29, 53.00000000000000000, #120 ) ;
#138 = DIRECTION ( 'NONE',  ( 0.000000000000000000, 0.000000000000000000, 1.000000000000000000 ) ) ;
#139 = CYLINDRICAL_SURFACE ( 'NONE', #101, 6.000000000000000888 ) ;
#140 = APPLICATION_PROTOCOL_DEFINITION ( 'international standard', 'config_control_design', 1994, #77 ) ;
#141 = CARTESIAN_POINT ( 'NONE',  ( 6.000000000000000888, 7.347880794884120722E-16, 5.000000000000000000 ) ) ;
#142 = CARTESIAN_POINT ( 'NONE',  ( -3.500000000000000000, 0.000000000000000000, 5.000000000000000000 ) ) ;
#143 = DIRECTION ( 'NONE',  ( -1.000000000000000000, 0.000000000000000000, 0.000000000000000000 ) ) ;
#144 = EDGE_CURVE ( 'NONE', #241, #14, #16, .T. ) ;
#145 = PLANE ( 'NONE',  #108 ) ;
#146 = DATE_AND_TIME ( #66, #247 ) ;
#147 = AXIS2_PLACEMENT_3D ( 'NONE', #107, #128, #165 ) ;
#148 = VERTEX_POINT ( 'NONE', #53 ) ;
#149 = CIRCLE ( 'NONE', #154, 6.000000000000000888 ) ;
#150 = DIRECTION ( 'NONE',  ( -1.000000000000000000, 0.000000000000000000, 0.000000000000000000 ) ) ;
#151 = CC_DESIGN_DATE_AND_TIME_ASSIGNMENT ( #198, #180, ( #78 ) ) ;
#152 = EDGE_LOOP ( 'NONE', ( #185, #55, #88, #69 ) ) ;
#153 = DIRECTION ( 'NONE',  ( 0.000000000000000000, 0.000000000000000000, 1.000000000000000000 ) ) ;
#154 = AXIS2_PLACEMENT_3D ( 'NONE', #7, #51, #201 ) ;
#155 = PLANE ( 'NONE',  #1 ) ;
#156 = DIRECTION ( 'NONE',  ( -0.000000000000000000, -0.000000000000000000, -1.000000000000000000 ) ) ;
#157 = APPROVAL_STATUS ( 'not_yet_approved' ) ;
#158 = CC_DESIGN_APPROVAL ( #213, ( #78 ) ) ;
#159 = EDGE_CURVE ( 'NONE', #133, #90, #111, .T. ) ;
#160 = ADVANCED_FACE ( 'NONE', ( #173 ), #250, .T. ) ;
#161 = PRODUCT_DEFINITION_FORMATION_WITH_SPECIFIED_SOURCE ( 'LIBOVOLNÝ', '', #20, .NOT_KNOWN. ) ;
#162 = VERTEX_POINT ( 'NONE', #114 ) ;
#163 = APPROVAL ( #235, 'NEURÈENÝ' ) ;
#164 = VECTOR ( 'NONE', #207, 1000.000000000000000 ) ;
#165 = DIRECTION ( 'NONE',  ( 1.000000000000000000, 0.000000000000000000, 0.000000000000000000 ) ) ;
#166 = ADVANCED_BREP_SHAPE_REPRESENTATION ( '28e5', ( #252, #187 ), #215 ) ;
#167 = COORDINATED_UNIVERSAL_TIME_OFFSET ( 1, 0, .AHEAD. ) ;
#168 = ORIENTED_EDGE ( 'NONE', *, *, #99, .F. ) ;
#169 = CARTESIAN_POINT ( 'NONE',  ( 3.500000000000000000, 4.286263797015736595E-16, 125.0000000000000000 ) ) ;
#170 = CYLINDRICAL_SURFACE ( 'NONE', #80, 6.000000000000000888 ) ;
#171 = EDGE_CURVE ( 'NONE', #133, #208, #21, .T. ) ;
#172 = ORIENTED_EDGE ( 'NONE', *, *, #249, .T. ) ;
#173 = FACE_OUTER_BOUND ( 'NONE', #110, .T. ) ;
#174 = EDGE_LOOP ( 'NONE', ( #104, #224 ) ) ;
#175 = EDGE_LOOP ( 'NONE', ( #33, #248 ) ) ;
#176 = ORIENTED_EDGE ( 'NONE', *, *, #144, .T. ) ;
#177 = PERSON_AND_ORGANIZATION ( #4, #184 ) ;
#178 = COORDINATED_UNIVERSAL_TIME_OFFSET ( 1, 0, .AHEAD. ) ;
#179 = DIRECTION ( 'NONE',  ( 1.000000000000000000, 0.000000000000000000, 0.000000000000000000 ) ) ;
#180 = DATE_TIME_ROLE ( 'creation_date' ) ;
#181 = PERSON_AND_ORGANIZATION_ROLE ( 'classification_officer' ) ;
#182 = UNCERTAINTY_MEASURE_WITH_UNIT (LENGTH_MEASURE( 1.000000000000000082E-05 ), #243, 'distance_accuracy_value', 'NONE');
#183 = DIRECTION ( 'NONE',  ( 1.000000000000000000, 0.000000000000000000, 0.000000000000000000 ) ) ;
#184 = ORGANIZATION ( 'NEURÈENÝ', 'NEURÈENÝ', '' ) ;
#185 = ORIENTED_EDGE ( 'NONE', *, *, #194, .F. ) ;
#186 = CARTESIAN_POINT ( 'NONE',  ( -3.500000000000000000, 0.000000000000000000, 125.0000000000000000 ) ) ;
#187 = AXIS2_PLACEMENT_3D ( 'NONE', #216, #100, #179 ) ;
#188 = ORIENTED_EDGE ( 'NONE', *, *, #236, .T. ) ;
#189 = ADVANCED_FACE ( 'NONE', ( #57 ), #145, .F. ) ;
#190 = ORIENTED_EDGE ( 'NONE', *, *, #68, .F. ) ;
#191 = AXIS2_PLACEMENT_3D ( 'NONE', #196, #138, #211 ) ;
#192 = CARTESIAN_POINT ( 'NONE',  ( 0.000000000000000000, 0.000000000000000000, 5.000000000000000000 ) ) ;
#193 = VECTOR ( 'NONE', #31, 1000.000000000000000 ) ;
#194 = EDGE_CURVE ( 'NONE', #208, #148, #132, .T. ) ;
#195 = APPROVAL_DATE_TIME ( #76, #213 ) ;
#196 = CARTESIAN_POINT ( 'NONE',  ( 0.000000000000000000, 0.000000000000000000, 5.000000000000000000 ) ) ;
#197 = DIRECTION ( 'NONE',  ( 1.000000000000000000, 0.000000000000000000, -0.000000000000000000 ) ) ;
#198 = DATE_AND_TIME ( #232, #44 ) ;
#199 = PERSON_AND_ORGANIZATION_ROLE ( 'creator' ) ;
#200 = EDGE_CURVE ( 'NONE', #90, #148, #46, .T. ) ;
#201 = DIRECTION ( 'NONE',  ( 1.000000000000000000, 0.000000000000000000, 0.000000000000000000 ) ) ;
#202 = SHAPE_DEFINITION_REPRESENTATION ( #214, #166 ) ;
#203 = DIRECTION ( 'NONE',  ( 1.000000000000000000, 0.000000000000000000, -0.000000000000000000 ) ) ;
#204 = APPROVAL ( #97, 'NEURÈENÝ' ) ;
#205 = CARTESIAN_POINT ( 'NONE',  ( -6.000000000000000888, 0.000000000000000000, 5.000000000000000000 ) ) ;
#206 = FACE_OUTER_BOUND ( 'NONE', #152, .T. ) ;
#207 = DIRECTION ( 'NONE',  ( -0.000000000000000000, -0.000000000000000000, -1.000000000000000000 ) ) ;
#208 = VERTEX_POINT ( 'NONE', #169 ) ;
#209 = DIRECTION ( 'NONE',  ( 0.000000000000000000, 0.000000000000000000, 1.000000000000000000 ) ) ;
#210 = EDGE_CURVE ( 'NONE', #134, #241, #62, .T. ) ;
#211 = DIRECTION ( 'NONE',  ( 1.000000000000000000, 0.000000000000000000, 0.000000000000000000 ) ) ;
#212 = FACE_OUTER_BOUND ( 'NONE', #226, .T. ) ;
#213 = APPROVAL ( #157, 'NEURÈENÝ' ) ;
#214 = PRODUCT_DEFINITION_SHAPE ( 'NONE', 'NONE',  #78 ) ;
#215 =( GEOMETRIC_REPRESENTATION_CONTEXT ( 3 ) GLOBAL_UNCERTAINTY_ASSIGNED_CONTEXT ( ( #182 ) ) GLOBAL_UNIT_ASSIGNED_CONTEXT ( ( #243, #65, #11 ) ) REPRESENTATION_CONTEXT ( 'NONE', 'WORKASPACE' ) );
#216 = CARTESIAN_POINT ( 'NONE',  ( 0.000000000000000000, 0.000000000000000000, 0.000000000000000000 ) ) ;
#217 = FACE_BOUND ( 'NONE', #175, .T. ) ;
#218 = AXIS2_PLACEMENT_3D ( 'NONE', #251, #153, #229 ) ;
#219 = APPROVAL_PERSON_ORGANIZATION ( #5, #163, #87 ) ;
#220 = DIRECTION ( 'NONE',  ( -0.000000000000000000, -0.000000000000000000, -1.000000000000000000 ) ) ;
#221 = CALENDAR_DATE ( 2023, 12, 2 ) ;
#222 = CARTESIAN_POINT ( 'NONE',  ( -6.000000000000000888, 0.000000000000000000, 5.000000000000000000 ) ) ;
#223 = AXIS2_PLACEMENT_3D ( 'NONE', #126, #240, #73 ) ;
#224 = ORIENTED_EDGE ( 'NONE', *, *, #86, .F. ) ;
#225 = CC_DESIGN_SECURITY_CLASSIFICATION ( #84, ( #161 ) ) ;
#226 = EDGE_LOOP ( 'NONE', ( #67, #93, #242, #52 ) ) ;
#227 = CARTESIAN_POINT ( 'NONE',  ( 6.000000000000000888, 7.347880794884120722E-16, 0.000000000000000000 ) ) ;
#228 = ORIENTED_EDGE ( 'NONE', *, *, #99, .T. ) ;
#229 = DIRECTION ( 'NONE',  ( 1.000000000000000000, 0.000000000000000000, 0.000000000000000000 ) ) ;
#230 = CC_DESIGN_APPROVAL ( #163, ( #84 ) ) ;
#231 = CALENDAR_DATE ( 2023, 12, 2 ) ;
#232 = CALENDAR_DATE ( 2023, 12, 2 ) ;
#233 = APPLICATION_PROTOCOL_DEFINITION ( 'international standard', 'config_control_design', 1994, #54 ) ;
#234 = APPROVAL_PERSON_ORGANIZATION ( #43, #213, #124 ) ;
#235 = APPROVAL_STATUS ( 'not_yet_approved' ) ;
#236 = EDGE_CURVE ( 'NONE', #134, #162, #149, .T. ) ;
#237 = AXIS2_PLACEMENT_3D ( 'NONE', #23, #98, #9 ) ;
#238 = DIRECTION ( 'NONE',  ( -0.000000000000000000, -0.000000000000000000, -1.000000000000000000 ) ) ;
#239 = APPROVAL_DATE_TIME ( #61, #204 ) ;
#240 = DIRECTION ( 'NONE',  ( 0.000000000000000000, 0.000000000000000000, 1.000000000000000000 ) ) ;
#241 = VERTEX_POINT ( 'NONE', #27 ) ;
#242 = ORIENTED_EDGE ( 'NONE', *, *, #86, .T. ) ;
#243 =( LENGTH_UNIT ( ) NAMED_UNIT ( * ) SI_UNIT ( .MILLI., .METRE. ) );
#244 = VECTOR ( 'NONE', #238, 1000.000000000000000 ) ;
#245 = CARTESIAN_POINT ( 'NONE',  ( 0.000000000000000000, 0.000000000000000000, 125.0000000000000000 ) ) ;
#246 = CARTESIAN_POINT ( 'NONE',  ( 3.500000000000000000, 4.286263797015736595E-16, 125.0000000000000000 ) ) ;
#247 = LOCAL_TIME ( 12, 29, 53.00000000000000000, #167 ) ;
#248 = ORIENTED_EDGE ( 'NONE', *, *, #28, .F. ) ;
#249 = EDGE_CURVE ( 'NONE', #162, #134, #119, .T. ) ;
#250 = PLANE ( 'NONE',  #136 ) ;
#251 = CARTESIAN_POINT ( 'NONE',  ( 0.000000000000000000, 0.000000000000000000, 125.0000000000000000 ) ) ;
#252 = MANIFOLD_SOLID_BREP ( 'Pøidat vysunutím3', #15 ) ;
#253 = CC_DESIGN_PERSON_AND_ORGANIZATION_ASSIGNMENT ( #30, #199, ( #161 ) ) ;
#254 = APPROVAL_ROLE ( '' ) ;
#255 = CARTESIAN_POINT ( 'NONE',  ( 0.000000000000000000, 0.000000000000000000, 5.000000000000000000 ) ) ;
ENDSEC;
END-ISO-10303-21;
