ISO-10303-21;
HEADER;
FILE_DESCRIPTION (( 'STEP AP203' ),
    '1' );
FILE_NAME ('cee4.STEP',
    '2023-02-12T12:14:39',
    ( '' ),
    ( '' ),
    'SwSTEP 2.0',
    'SolidWorks 2019',
    '' );
FILE_SCHEMA (( 'CONFIG_CONTROL_DESIGN' ));
ENDSEC;

DATA;
#1 = CARTESIAN_POINT ( 'NONE',  ( -1.250000000000000000, 0.000000000000000000, 250.0000000000000000 ) ) ;
#2 = DIRECTION ( 'NONE',  ( 0.000000000000000000, 0.000000000000000000, 1.000000000000000000 ) ) ;
#3 = CALENDAR_DATE ( 2023, 12, 2 ) ;
#4 = CIRCLE ( 'NONE', #28, 2.500000000000000000 ) ;
#5 = CC_DESIGN_DATE_AND_TIME_ASSIGNMENT ( #27, #85, ( #237 ) ) ;
#6 = CARTESIAN_POINT ( 'NONE',  ( 0.000000000000000000, 0.000000000000000000, 2.000000000000000000 ) ) ;
#7 = DIRECTION ( 'NONE',  ( 0.000000000000000000, 0.000000000000000000, 1.000000000000000000 ) ) ;
#8 = DIRECTION ( 'NONE',  ( 1.000000000000000000, 0.000000000000000000, 0.000000000000000000 ) ) ;
#9 = AXIS2_PLACEMENT_3D ( 'NONE', #12, #32, #111 ) ;
#10 = PERSON_AND_ORGANIZATION ( #97, #193 ) ;
#11 = PERSON_AND_ORGANIZATION_ROLE ( 'creator' ) ;
#12 = CARTESIAN_POINT ( 'NONE',  ( 0.000000000000000000, 0.000000000000000000, 250.0000000000000000 ) ) ;
#13 = AXIS2_PLACEMENT_3D ( 'NONE', #45, #179, #201 ) ;
#14 = VERTEX_POINT ( 'NONE', #252 ) ;
#15 = VERTEX_POINT ( 'NONE', #1 ) ;
#16 = APPROVAL_PERSON_ORGANIZATION ( #233, #118, #215 ) ;
#17 = ORIENTED_EDGE ( 'NONE', *, *, #121, .T. ) ;
#18 = CARTESIAN_POINT ( 'NONE',  ( 0.000000000000000000, 0.000000000000000000, 2.000000000000000000 ) ) ;
#19 = ADVANCED_FACE ( 'NONE', ( #84 ), #205, .T. ) ;
#20 = DIRECTION ( 'NONE',  ( 1.000000000000000000, 0.000000000000000000, 0.000000000000000000 ) ) ;
#21 = CARTESIAN_POINT ( 'NONE',  ( -2.500000000000000000, 0.000000000000000000, 2.000000000000000000 ) ) ;
#22 = EDGE_CURVE ( 'NONE', #14, #75, #95, .T. ) ;
#23 = DIRECTION ( 'NONE',  ( 1.000000000000000000, 0.000000000000000000, 0.000000000000000000 ) ) ;
#24 = APPROVAL_DATE_TIME ( #29, #118 ) ;
#25 = AXIS2_PLACEMENT_3D ( 'NONE', #129, #214, #8 ) ;
#26 = CC_DESIGN_PERSON_AND_ORGANIZATION_ASSIGNMENT ( #10, #230, ( #159 ) ) ;
#27 = DATE_AND_TIME ( #87, #130 ) ;
#28 = AXIS2_PLACEMENT_3D ( 'NONE', #242, #41, #158 ) ;
#29 = DATE_AND_TIME ( #128, #167 ) ;
#30 = VECTOR ( 'NONE', #204, 1000.000000000000000 ) ;
#31 = PRODUCT_RELATED_PRODUCT_CATEGORY ( 'detail', '', ( #169 ) ) ;
#32 = DIRECTION ( 'NONE',  ( -0.000000000000000000, -0.000000000000000000, -1.000000000000000000 ) ) ;
#33 = CALENDAR_DATE ( 2023, 12, 2 ) ;
#34 = ORIENTED_EDGE ( 'NONE', *, *, #22, .T. ) ;
#35 = ORIENTED_EDGE ( 'NONE', *, *, #51, .T. ) ;
#36 = CC_DESIGN_APPROVAL ( #92, ( #159 ) ) ;
#37 = ORIENTED_EDGE ( 'NONE', *, *, #221, .F. ) ;
#38 = ORIENTED_EDGE ( 'NONE', *, *, #22, .F. ) ;
#39 = APPLICATION_PROTOCOL_DEFINITION ( 'international standard', 'config_control_design', 1994, #109 ) ;
#40 = PERSON_AND_ORGANIZATION_ROLE ( 'design_owner' ) ;
#41 = DIRECTION ( 'NONE',  ( 0.000000000000000000, 0.000000000000000000, 1.000000000000000000 ) ) ;
#42 = APPROVAL_STATUS ( 'not_yet_approved' ) ;
#43 = PRODUCT_DEFINITION_FORMATION_WITH_SPECIFIED_SOURCE ( 'LIBOVOLNÝ', '', #169, .NOT_KNOWN. ) ;
#44 = DIRECTION ( 'NONE',  ( -0.000000000000000000, -0.000000000000000000, -1.000000000000000000 ) ) ;
#45 = CARTESIAN_POINT ( 'NONE',  ( 0.000000000000000000, 0.000000000000000000, 250.0000000000000000 ) ) ;
#46 = CC_DESIGN_PERSON_AND_ORGANIZATION_ASSIGNMENT ( #63, #40, ( #169 ) ) ;
#47 = CIRCLE ( 'NONE', #74, 2.500000000000000000 ) ;
#48 = COORDINATED_UNIVERSAL_TIME_OFFSET ( 1, 0, .AHEAD. ) ;
#49 = DATE_TIME_ROLE ( 'creation_date' ) ;
#50 = VECTOR ( 'NONE', #91, 1000.000000000000000 ) ;
#51 = EDGE_CURVE ( 'NONE', #75, #14, #203, .T. ) ;
#52 = APPROVAL_DATE_TIME ( #71, #92 ) ;
#53 = AXIS2_PLACEMENT_3D ( 'NONE', #207, #2, #244 ) ;
#54 = APPROVAL_ROLE ( '' ) ;
#55 = ORIENTED_EDGE ( 'NONE', *, *, #76, .T. ) ;
#56 = DESIGN_CONTEXT ( 'detailed design', #133, 'design' ) ;
#57 = CLOSED_SHELL ( 'NONE', ( #223, #224, #124, #171, #142, #135, #19 ) ) ;
#58 = EDGE_LOOP ( 'NONE', ( #136, #60 ) ) ;
#59 = AXIS2_PLACEMENT_3D ( 'NONE', #110, #188, #107 ) ;
#60 = ORIENTED_EDGE ( 'NONE', *, *, #213, .T. ) ;
#61 = CARTESIAN_POINT ( 'NONE',  ( -1.250000000000000000, 0.000000000000000000, 2.000000000000000000 ) ) ;
#62 = CIRCLE ( 'NONE', #59, 1.250000000000000000 ) ;
#63 = PERSON_AND_ORGANIZATION ( #97, #193 ) ;
#64 = DIRECTION ( 'NONE',  ( -0.000000000000000000, -0.000000000000000000, -1.000000000000000000 ) ) ;
#65 = CYLINDRICAL_SURFACE ( 'NONE', #155, 2.500000000000000000 ) ;
#66 = CARTESIAN_POINT ( 'NONE',  ( 1.250000000000000000, 1.530808498934191571E-16, 2.000000000000000000 ) ) ;
#67 = DIRECTION ( 'NONE',  ( -1.000000000000000000, 0.000000000000000000, 0.000000000000000000 ) ) ;
#68 = DATE_AND_TIME ( #86, #239 ) ;
#69 = DIRECTION ( 'NONE',  ( 1.000000000000000000, 0.000000000000000000, 0.000000000000000000 ) ) ;
#70 = PERSON_AND_ORGANIZATION_ROLE ( 'classification_officer' ) ;
#71 = DATE_AND_TIME ( #3, #216 ) ;
#72 = EDGE_CURVE ( 'NONE', #251, #132, #101, .T. ) ;
#73 = ORIENTED_EDGE ( 'NONE', *, *, #72, .F. ) ;
#74 = AXIS2_PLACEMENT_3D ( 'NONE', #174, #156, #175 ) ;
#75 = VERTEX_POINT ( 'NONE', #21 ) ;
#76 = EDGE_CURVE ( 'NONE', #132, #253, #219, .T. ) ;
#77 = ORIENTED_EDGE ( 'NONE', *, *, #51, .F. ) ;
#78 = LINE ( 'NONE', #248, #30 ) ;
#79 = FACE_OUTER_BOUND ( 'NONE', #220, .T. ) ;
#80 = APPROVAL_PERSON_ORGANIZATION ( #122, #92, #206 ) ;
#81 = PLANE ( 'NONE',  #114 ) ;
#82 = DIRECTION ( 'NONE',  ( 0.000000000000000000, 0.000000000000000000, 1.000000000000000000 ) ) ;
#83 = AXIS2_PLACEMENT_3D ( 'NONE', #143, #231, #255 ) ;
#84 = FACE_OUTER_BOUND ( 'NONE', #58, .T. ) ;
#85 = DATE_TIME_ROLE ( 'classification_date' ) ;
#86 = CALENDAR_DATE ( 2023, 12, 2 ) ;
#87 = CALENDAR_DATE ( 2023, 12, 2 ) ;
#88 = DATE_AND_TIME ( #33, #177 ) ;
#89 = APPROVAL_STATUS ( 'not_yet_approved' ) ;
#90 = CC_DESIGN_APPROVAL ( #160, ( #43 ) ) ;
#91 = DIRECTION ( 'NONE',  ( -0.000000000000000000, -0.000000000000000000, -1.000000000000000000 ) ) ;
#92 = APPROVAL ( #42, 'NEURÈENÝ' ) ;
#93 = ORIENTED_EDGE ( 'NONE', *, *, #165, .F. ) ;
#94 = ORIENTED_EDGE ( 'NONE', *, *, #182, .F. ) ;
#95 = CIRCLE ( 'NONE', #185, 2.500000000000000000 ) ;
#96 = EDGE_LOOP ( 'NONE', ( #35, #34 ) ) ;
#97 = PERSON ( 'NEURÈENÝ', 'NEURÈENÝ', 'NEURÈENÝ', ('NEURÈENÝ'), ('NEURÈENÝ'), ('NEURÈENÝ') ) ;
#98 = ORIENTED_EDGE ( 'NONE', *, *, #198, .F. ) ;
#99 = EDGE_LOOP ( 'NONE', ( #94, #115 ) ) ;
#100 = CYLINDRICAL_SURFACE ( 'NONE', #173, 2.500000000000000000 ) ;
#101 = LINE ( 'NONE', #176, #180 ) ;
#102 = PRODUCT_DEFINITION_SHAPE ( 'NONE', 'NONE',  #159 ) ;
#103 = CARTESIAN_POINT ( 'NONE',  ( 0.000000000000000000, 0.000000000000000000, 2.000000000000000000 ) ) ;
#104 = AXIS2_PLACEMENT_3D ( 'NONE', #120, #217, #69 ) ;
#105 =( LENGTH_UNIT ( ) NAMED_UNIT ( * ) SI_UNIT ( .MILLI., .METRE. ) );
#106 = FACE_OUTER_BOUND ( 'NONE', #99, .T. ) ;
#107 = DIRECTION ( 'NONE',  ( 1.000000000000000000, 0.000000000000000000, 0.000000000000000000 ) ) ;
#108 = LINE ( 'NONE', #161, #50 ) ;
#109 = APPLICATION_CONTEXT ( 'configuration controlled 3d designs of mechanical parts and assemblies' ) ;
#110 = CARTESIAN_POINT ( 'NONE',  ( 0.000000000000000000, 0.000000000000000000, 250.0000000000000000 ) ) ;
#111 = DIRECTION ( 'NONE',  ( -1.000000000000000000, 0.000000000000000000, 0.000000000000000000 ) ) ;
#112 = ORIENTED_EDGE ( 'NONE', *, *, #213, .F. ) ;
#113 = EDGE_LOOP ( 'NONE', ( #93, #77, #146, #195 ) ) ;
#114 = AXIS2_PLACEMENT_3D ( 'NONE', #181, #7, #245 ) ;
#115 = ORIENTED_EDGE ( 'NONE', *, *, #121, .F. ) ;
#116 = CIRCLE ( 'NONE', #25, 1.250000000000000000 ) ;
#117 = CC_DESIGN_PERSON_AND_ORGANIZATION_ASSIGNMENT ( #164, #11, ( #43 ) ) ;
#118 = APPROVAL ( #234, 'NEURÈENÝ' ) ;
#119 = CARTESIAN_POINT ( 'NONE',  ( 0.000000000000000000, 0.000000000000000000, 0.000000000000000000 ) ) ;
#120 = CARTESIAN_POINT ( 'NONE',  ( 0.000000000000000000, 0.000000000000000000, 2.000000000000000000 ) ) ;
#121 = EDGE_CURVE ( 'NONE', #238, #218, #47, .T. ) ;
#122 = PERSON_AND_ORGANIZATION ( #97, #193 ) ;
#123 = CARTESIAN_POINT ( 'NONE',  ( 0.000000000000000000, 0.000000000000000000, 2.000000000000000000 ) ) ;
#124 = ADVANCED_FACE ( 'NONE', ( #126 ), #65, .T. ) ;
#125 = FACE_OUTER_BOUND ( 'NONE', #96, .T. ) ;
#126 = FACE_OUTER_BOUND ( 'NONE', #113, .T. ) ;
#127 = PERSON_AND_ORGANIZATION ( #97, #193 ) ;
#128 = CALENDAR_DATE ( 2023, 12, 2 ) ;
#129 = CARTESIAN_POINT ( 'NONE',  ( 0.000000000000000000, 0.000000000000000000, 250.0000000000000000 ) ) ;
#130 = LOCAL_TIME ( 13, 14, 39.00000000000000000, #145 ) ;
#131 = ORIENTED_EDGE ( 'NONE', *, *, #165, .T. ) ;
#132 = VERTEX_POINT ( 'NONE', #66 ) ;
#133 = APPLICATION_CONTEXT ( 'configuration controlled 3d designs of mechanical parts and assemblies' ) ;
#134 = CC_DESIGN_SECURITY_CLASSIFICATION ( #237, ( #43 ) ) ;
#135 = ADVANCED_FACE ( 'NONE', ( #79 ), #141, .T. ) ;
#136 = ORIENTED_EDGE ( 'NONE', *, *, #202, .T. ) ;
#137 = DIRECTION ( 'NONE',  ( -0.000000000000000000, -0.000000000000000000, -1.000000000000000000 ) ) ;
#138 = CARTESIAN_POINT ( 'NONE',  ( 0.000000000000000000, 0.000000000000000000, 2.000000000000000000 ) ) ;
#139 =( NAMED_UNIT ( * ) SI_UNIT ( $, .STERADIAN. ) SOLID_ANGLE_UNIT ( ) );
#140 = FACE_OUTER_BOUND ( 'NONE', #170, .T. ) ;
#141 = CYLINDRICAL_SURFACE ( 'NONE', #83, 1.250000000000000000 ) ;
#142 = ADVANCED_FACE ( 'NONE', ( #106 ), #151, .F. ) ;
#143 = CARTESIAN_POINT ( 'NONE',  ( 0.000000000000000000, 0.000000000000000000, 250.0000000000000000 ) ) ;
#144 = CC_DESIGN_APPROVAL ( #118, ( #237 ) ) ;
#145 = COORDINATED_UNIVERSAL_TIME_OFFSET ( 1, 0, .AHEAD. ) ;
#146 = ORIENTED_EDGE ( 'NONE', *, *, #221, .T. ) ;
#147 = UNCERTAINTY_MEASURE_WITH_UNIT (LENGTH_MEASURE( 1.000000000000000082E-05 ), #105, 'distance_accuracy_value', 'NONE');
#148 = ORIENTED_EDGE ( 'NONE', *, *, #198, .T. ) ;
#149 = AXIS2_PLACEMENT_3D ( 'NONE', #123, #82, #20 ) ;
#150 = FACE_BOUND ( 'NONE', #192, .T. ) ;
#151 = PLANE ( 'NONE',  #53 ) ;
#152 = CIRCLE ( 'NONE', #104, 1.250000000000000000 ) ;
#153 = APPLICATION_PROTOCOL_DEFINITION ( 'international standard', 'config_control_design', 1994, #133 ) ;
#154 = DIRECTION ( 'NONE',  ( 0.000000000000000000, 0.000000000000000000, 1.000000000000000000 ) ) ;
#155 = AXIS2_PLACEMENT_3D ( 'NONE', #138, #246, #67 ) ;
#156 = DIRECTION ( 'NONE',  ( 0.000000000000000000, 0.000000000000000000, 1.000000000000000000 ) ) ;
#157 = CARTESIAN_POINT ( 'NONE',  ( 2.500000000000000000, 3.061616997868383141E-16, 0.000000000000000000 ) ) ;
#158 = DIRECTION ( 'NONE',  ( 1.000000000000000000, 0.000000000000000000, 0.000000000000000000 ) ) ;
#159 = PRODUCT_DEFINITION ( 'NEZNÁMÝ', '', #43, #56 ) ;
#160 = APPROVAL ( #89, 'NEURÈENÝ' ) ;
#161 = CARTESIAN_POINT ( 'NONE',  ( -2.500000000000000000, 0.000000000000000000, 2.000000000000000000 ) ) ;
#162 = SHAPE_DEFINITION_REPRESENTATION ( #102, #208 ) ;
#163 = APPROVAL_DATE_TIME ( #88, #160 ) ;
#164 = PERSON_AND_ORGANIZATION ( #97, #193 ) ;
#165 = EDGE_CURVE ( 'NONE', #14, #238, #229, .T. ) ;
#166 = CYLINDRICAL_SURFACE ( 'NONE', #9, 1.250000000000000000 ) ;
#167 = LOCAL_TIME ( 13, 14, 39.00000000000000000, #48 ) ;
#168 = ORIENTED_EDGE ( 'NONE', *, *, #202, .F. ) ;
#169 = PRODUCT ( 'cee4', 'cee4', '', ( #225 ) ) ;
#170 = EDGE_LOOP ( 'NONE', ( #38, #131, #17, #37 ) ) ;
#171 = ADVANCED_FACE ( 'NONE', ( #150, #125 ), #81, .T. ) ;
#172 =( GEOMETRIC_REPRESENTATION_CONTEXT ( 3 ) GLOBAL_UNCERTAINTY_ASSIGNED_CONTEXT ( ( #147 ) ) GLOBAL_UNIT_ASSIGNED_CONTEXT ( ( #105, #227, #139 ) ) REPRESENTATION_CONTEXT ( 'NONE', 'WORKASPACE' ) );
#173 = AXIS2_PLACEMENT_3D ( 'NONE', #6, #137, #254 ) ;
#174 = CARTESIAN_POINT ( 'NONE',  ( 0.000000000000000000, 0.000000000000000000, 0.000000000000000000 ) ) ;
#175 = DIRECTION ( 'NONE',  ( 1.000000000000000000, 0.000000000000000000, 0.000000000000000000 ) ) ;
#176 = CARTESIAN_POINT ( 'NONE',  ( 1.250000000000000000, 1.530808498934191571E-16, 250.0000000000000000 ) ) ;
#177 = LOCAL_TIME ( 13, 14, 39.00000000000000000, #236 ) ;
#178 = COORDINATED_UNIVERSAL_TIME_OFFSET ( 1, 0, .AHEAD. ) ;
#179 = DIRECTION ( 'NONE',  ( 0.000000000000000000, 0.000000000000000000, 1.000000000000000000 ) ) ;
#180 = VECTOR ( 'NONE', #64, 1000.000000000000000 ) ;
#181 = CARTESIAN_POINT ( 'NONE',  ( 0.000000000000000000, 0.000000000000000000, 2.000000000000000000 ) ) ;
#182 = EDGE_CURVE ( 'NONE', #218, #238, #4, .T. ) ;
#183 = PERSON_AND_ORGANIZATION ( #97, #193 ) ;
#184 = PERSON_AND_ORGANIZATION ( #97, #193 ) ;
#185 = AXIS2_PLACEMENT_3D ( 'NONE', #18, #211, #23 ) ;
#186 = CC_DESIGN_PERSON_AND_ORGANIZATION_ASSIGNMENT ( #183, #70, ( #237 ) ) ;
#187 = AXIS2_PLACEMENT_3D ( 'NONE', #119, #154, #199 ) ;
#188 = DIRECTION ( 'NONE',  ( 0.000000000000000000, 0.000000000000000000, 1.000000000000000000 ) ) ;
#189 = PERSON_AND_ORGANIZATION_ROLE ( 'design_supplier' ) ;
#190 = CC_DESIGN_DATE_AND_TIME_ASSIGNMENT ( #68, #49, ( #159 ) ) ;
#191 = FACE_OUTER_BOUND ( 'NONE', #197, .T. ) ;
#192 = EDGE_LOOP ( 'NONE', ( #98, #200 ) ) ;
#193 = ORGANIZATION ( 'NEURÈENÝ', 'NEURÈENÝ', '' ) ;
#194 = ORIENTED_EDGE ( 'NONE', *, *, #72, .T. ) ;
#195 = ORIENTED_EDGE ( 'NONE', *, *, #182, .T. ) ;
#196 = AXIS2_PLACEMENT_3D ( 'NONE', #103, #228, #210 ) ;
#197 = EDGE_LOOP ( 'NONE', ( #112, #194, #55, #240 ) ) ;
#198 = EDGE_CURVE ( 'NONE', #253, #132, #152, .T. ) ;
#199 = DIRECTION ( 'NONE',  ( 1.000000000000000000, 0.000000000000000000, 0.000000000000000000 ) ) ;
#200 = ORIENTED_EDGE ( 'NONE', *, *, #76, .F. ) ;
#201 = DIRECTION ( 'NONE',  ( 1.000000000000000000, 0.000000000000000000, -0.000000000000000000 ) ) ;
#202 = EDGE_CURVE ( 'NONE', #15, #251, #116, .T. ) ;
#203 = CIRCLE ( 'NONE', #196, 2.500000000000000000 ) ;
#204 = DIRECTION ( 'NONE',  ( -0.000000000000000000, -0.000000000000000000, -1.000000000000000000 ) ) ;
#205 = PLANE ( 'NONE',  #13 ) ;
#206 = APPROVAL_ROLE ( '' ) ;
#207 = CARTESIAN_POINT ( 'NONE',  ( 0.000000000000000000, 0.000000000000000000, 0.000000000000000000 ) ) ;
#208 = ADVANCED_BREP_SHAPE_REPRESENTATION ( 'cee4', ( #241, #187 ), #172 ) ;
#209 = CARTESIAN_POINT ( 'NONE',  ( 1.250000000000000000, 1.530808498934191571E-16, 250.0000000000000000 ) ) ;
#210 = DIRECTION ( 'NONE',  ( 1.000000000000000000, 0.000000000000000000, 0.000000000000000000 ) ) ;
#211 = DIRECTION ( 'NONE',  ( 0.000000000000000000, 0.000000000000000000, 1.000000000000000000 ) ) ;
#212 = CARTESIAN_POINT ( 'NONE',  ( -2.500000000000000000, 0.000000000000000000, 0.000000000000000000 ) ) ;
#213 = EDGE_CURVE ( 'NONE', #251, #15, #62, .T. ) ;
#214 = DIRECTION ( 'NONE',  ( 0.000000000000000000, 0.000000000000000000, 1.000000000000000000 ) ) ;
#215 = APPROVAL_ROLE ( '' ) ;
#216 = LOCAL_TIME ( 13, 14, 39.00000000000000000, #178 ) ;
#217 = DIRECTION ( 'NONE',  ( 0.000000000000000000, 0.000000000000000000, 1.000000000000000000 ) ) ;
#218 = VERTEX_POINT ( 'NONE', #212 ) ;
#219 = CIRCLE ( 'NONE', #149, 1.250000000000000000 ) ;
#220 = EDGE_LOOP ( 'NONE', ( #73, #168, #222, #148 ) ) ;
#221 = EDGE_CURVE ( 'NONE', #75, #218, #108, .T. ) ;
#222 = ORIENTED_EDGE ( 'NONE', *, *, #247, .T. ) ;
#223 = ADVANCED_FACE ( 'NONE', ( #191 ), #166, .T. ) ;
#224 = ADVANCED_FACE ( 'NONE', ( #140 ), #100, .T. ) ;
#225 = MECHANICAL_CONTEXT ( 'NONE', #109, 'mechanical' ) ;
#226 = CARTESIAN_POINT ( 'NONE',  ( 2.500000000000000000, 3.061616997868383141E-16, 2.000000000000000000 ) ) ;
#227 =( NAMED_UNIT ( * ) PLANE_ANGLE_UNIT ( ) SI_UNIT ( $, .RADIAN. ) );
#228 = DIRECTION ( 'NONE',  ( 0.000000000000000000, 0.000000000000000000, 1.000000000000000000 ) ) ;
#229 = LINE ( 'NONE', #226, #235 ) ;
#230 = PERSON_AND_ORGANIZATION_ROLE ( 'creator' ) ;
#231 = DIRECTION ( 'NONE',  ( -0.000000000000000000, -0.000000000000000000, -1.000000000000000000 ) ) ;
#232 = COORDINATED_UNIVERSAL_TIME_OFFSET ( 1, 0, .AHEAD. ) ;
#233 = PERSON_AND_ORGANIZATION ( #97, #193 ) ;
#234 = APPROVAL_STATUS ( 'not_yet_approved' ) ;
#235 = VECTOR ( 'NONE', #44, 1000.000000000000000 ) ;
#236 = COORDINATED_UNIVERSAL_TIME_OFFSET ( 1, 0, .AHEAD. ) ;
#237 = SECURITY_CLASSIFICATION ( '', '', #250 ) ;
#238 = VERTEX_POINT ( 'NONE', #157 ) ;
#239 = LOCAL_TIME ( 13, 14, 39.00000000000000000, #232 ) ;
#240 = ORIENTED_EDGE ( 'NONE', *, *, #247, .F. ) ;
#241 = MANIFOLD_SOLID_BREP ( 'Pøidat vysunutím3', #57 ) ;
#242 = CARTESIAN_POINT ( 'NONE',  ( 0.000000000000000000, 0.000000000000000000, 0.000000000000000000 ) ) ;
#243 = CC_DESIGN_PERSON_AND_ORGANIZATION_ASSIGNMENT ( #184, #189, ( #43 ) ) ;
#244 = DIRECTION ( 'NONE',  ( 1.000000000000000000, 0.000000000000000000, -0.000000000000000000 ) ) ;
#245 = DIRECTION ( 'NONE',  ( 1.000000000000000000, 0.000000000000000000, -0.000000000000000000 ) ) ;
#246 = DIRECTION ( 'NONE',  ( -0.000000000000000000, -0.000000000000000000, -1.000000000000000000 ) ) ;
#247 = EDGE_CURVE ( 'NONE', #15, #253, #78, .T. ) ;
#248 = CARTESIAN_POINT ( 'NONE',  ( -1.250000000000000000, 0.000000000000000000, 250.0000000000000000 ) ) ;
#249 = APPROVAL_PERSON_ORGANIZATION ( #127, #160, #54 ) ;
#250 = SECURITY_CLASSIFICATION_LEVEL ( 'unclassified' ) ;
#251 = VERTEX_POINT ( 'NONE', #209 ) ;
#252 = CARTESIAN_POINT ( 'NONE',  ( 2.500000000000000000, 3.061616997868383141E-16, 2.000000000000000000 ) ) ;
#253 = VERTEX_POINT ( 'NONE', #61 ) ;
#254 = DIRECTION ( 'NONE',  ( -1.000000000000000000, 0.000000000000000000, 0.000000000000000000 ) ) ;
#255 = DIRECTION ( 'NONE',  ( -1.000000000000000000, 0.000000000000000000, 0.000000000000000000 ) ) ;
ENDSEC;
END-ISO-10303-21;
