ISO-10303-21;
HEADER;
FILE_DESCRIPTION (( 'STEP AP203' ),
    '1' );
FILE_NAME ('0c5c.STEP',
    '2023-02-12T12:11:55',
    ( '' ),
    ( '' ),
    'SwSTEP 2.0',
    'SolidWorks 2019',
    '' );
FILE_SCHEMA (( 'CONFIG_CONTROL_DESIGN' ));
ENDSEC;

DATA;
#1 = AXIS2_PLACEMENT_3D ( 'NONE', #120, #207, #39 ) ;
#2 =( NAMED_UNIT ( * ) PLANE_ANGLE_UNIT ( ) SI_UNIT ( $, .RADIAN. ) );
#3 = DIRECTION ( 'NONE',  ( 1.000000000000000000, 0.000000000000000000, -0.000000000000000000 ) ) ;
#4 = VECTOR ( 'NONE', #136, 1000.000000000000000 ) ;
#5 = DATE_AND_TIME ( #58, #82 ) ;
#6 = VERTEX_POINT ( 'NONE', #44 ) ;
#7 = CARTESIAN_POINT ( 'NONE',  ( 0.000000000000000000, 0.000000000000000000, 3.000000000000000000 ) ) ;
#8 = CARTESIAN_POINT ( 'NONE',  ( 0.000000000000000000, 0.000000000000000000, 0.000000000000000000 ) ) ;
#9 = ORIENTED_EDGE ( 'NONE', *, *, #112, .F. ) ;
#10 = FACE_OUTER_BOUND ( 'NONE', #80, .T. ) ;
#11 = EDGE_CURVE ( 'NONE', #180, #51, #63, .T. ) ;
#12 = AXIS2_PLACEMENT_3D ( 'NONE', #67, #145, #150 ) ;
#13 = DIRECTION ( 'NONE',  ( 0.000000000000000000, 0.000000000000000000, 1.000000000000000000 ) ) ;
#14 = CALENDAR_DATE ( 2023, 12, 2 ) ;
#15 = PERSON_AND_ORGANIZATION_ROLE ( 'design_supplier' ) ;
#16 = AXIS2_PLACEMENT_3D ( 'NONE', #8, #209, #174 ) ;
#17 = CARTESIAN_POINT ( 'NONE',  ( 0.000000000000000000, 0.000000000000000000, 250.0000000000000000 ) ) ;
#18 = EDGE_CURVE ( 'NONE', #6, #24, #118, .T. ) ;
#19 = APPROVAL_DATE_TIME ( #53, #155 ) ;
#20 = ADVANCED_FACE ( 'NONE', ( #229 ), #26, .T. ) ;
#21 = APPROVAL ( #216, 'NEURÈENÝ' ) ;
#22 = APPROVAL_STATUS ( 'not_yet_approved' ) ;
#23 = DIRECTION ( 'NONE',  ( -1.000000000000000000, 0.000000000000000000, 0.000000000000000000 ) ) ;
#24 = VERTEX_POINT ( 'NONE', #185 ) ;
#25 = LOCAL_TIME ( 13, 11, 55.00000000000000000, #169 ) ;
#26 = CYLINDRICAL_SURFACE ( 'NONE', #147, 3.000000000000000444 ) ;
#27 = DIRECTION ( 'NONE',  ( -0.000000000000000000, -0.000000000000000000, -1.000000000000000000 ) ) ;
#28 = CC_DESIGN_PERSON_AND_ORGANIZATION_ASSIGNMENT ( #200, #70, ( #125 ) ) ;
#29 = EDGE_LOOP ( 'NONE', ( #121, #48, #164, #76 ) ) ;
#30 = FACE_OUTER_BOUND ( 'NONE', #98, .T. ) ;
#31 = EDGE_LOOP ( 'NONE', ( #9, #205 ) ) ;
#32 = DIRECTION ( 'NONE',  ( -0.000000000000000000, -0.000000000000000000, -1.000000000000000000 ) ) ;
#33 = AXIS2_PLACEMENT_3D ( 'NONE', #176, #71, #132 ) ;
#34 = PLANE ( 'NONE',  #166 ) ;
#35 = DESIGN_CONTEXT ( 'detailed design', #93, 'design' ) ;
#36 = CALENDAR_DATE ( 2023, 12, 2 ) ;
#37 = APPROVAL_PERSON_ORGANIZATION ( #254, #21, #165 ) ;
#38 = ORIENTED_EDGE ( 'NONE', *, *, #66, .F. ) ;
#39 = DIRECTION ( 'NONE',  ( 1.000000000000000000, 0.000000000000000000, 0.000000000000000000 ) ) ;
#40 = DIRECTION ( 'NONE',  ( 1.000000000000000000, 0.000000000000000000, 0.000000000000000000 ) ) ;
#41 = LOCAL_TIME ( 13, 11, 55.00000000000000000, #89 ) ;
#42 = PLANE ( 'NONE',  #91 ) ;
#43 = CIRCLE ( 'NONE', #187, 1.600000000000000089 ) ;
#44 = CARTESIAN_POINT ( 'NONE',  ( -1.600000000000000089, 0.000000000000000000, 250.0000000000000000 ) ) ;
#45 = ADVANCED_FACE ( 'NONE', ( #247, #10 ), #168, .T. ) ;
#46 = CARTESIAN_POINT ( 'NONE',  ( 0.000000000000000000, 0.000000000000000000, 250.0000000000000000 ) ) ;
#47 = DIRECTION ( 'NONE',  ( -0.000000000000000000, -0.000000000000000000, -1.000000000000000000 ) ) ;
#48 = ORIENTED_EDGE ( 'NONE', *, *, #249, .F. ) ;
#49 = AXIS2_PLACEMENT_3D ( 'NONE', #73, #206, #181 ) ;
#50 = VERTEX_POINT ( 'NONE', #255 ) ;
#51 = VERTEX_POINT ( 'NONE', #236 ) ;
#52 = EDGE_CURVE ( 'NONE', #228, #24, #43, .T. ) ;
#53 = DATE_AND_TIME ( #144, #41 ) ;
#54 = PRODUCT_DEFINITION_SHAPE ( 'NONE', 'NONE',  #196 ) ;
#55 = PERSON_AND_ORGANIZATION ( #195, #231 ) ;
#56 = CARTESIAN_POINT ( 'NONE',  ( 0.000000000000000000, 0.000000000000000000, 250.0000000000000000 ) ) ;
#57 = DATE_AND_TIME ( #14, #134 ) ;
#58 = CALENDAR_DATE ( 2023, 12, 2 ) ;
#59 = CARTESIAN_POINT ( 'NONE',  ( 3.000000000000000444, 3.673940397442060361E-16, 3.000000000000000000 ) ) ;
#60 = CC_DESIGN_PERSON_AND_ORGANIZATION_ASSIGNMENT ( #170, #191, ( #217 ) ) ;
#61 = DIRECTION ( 'NONE',  ( 0.000000000000000000, 0.000000000000000000, 1.000000000000000000 ) ) ;
#62 = ORIENTED_EDGE ( 'NONE', *, *, #78, .F. ) ;
#63 = LINE ( 'NONE', #122, #253 ) ;
#64 = EDGE_LOOP ( 'NONE', ( #208, #138 ) ) ;
#65 = DATE_AND_TIME ( #36, #244 ) ;
#66 = EDGE_CURVE ( 'NONE', #50, #6, #221, .T. ) ;
#67 = CARTESIAN_POINT ( 'NONE',  ( 0.000000000000000000, 0.000000000000000000, 3.000000000000000000 ) ) ;
#68 = CARTESIAN_POINT ( 'NONE',  ( 1.600000000000000089, 1.959434878635765230E-16, 3.000000000000000000 ) ) ;
#69 = CARTESIAN_POINT ( 'NONE',  ( 0.000000000000000000, 0.000000000000000000, 3.000000000000000000 ) ) ;
#70 = PERSON_AND_ORGANIZATION_ROLE ( 'design_owner' ) ;
#71 = DIRECTION ( 'NONE',  ( 0.000000000000000000, 0.000000000000000000, 1.000000000000000000 ) ) ;
#72 = AXIS2_PLACEMENT_3D ( 'NONE', #17, #27, #23 ) ;
#73 = CARTESIAN_POINT ( 'NONE',  ( 0.000000000000000000, 0.000000000000000000, 3.000000000000000000 ) ) ;
#74 = CARTESIAN_POINT ( 'NONE',  ( 3.000000000000000444, 3.673940397442060361E-16, 0.000000000000000000 ) ) ;
#75 = DIRECTION ( 'NONE',  ( -0.000000000000000000, -0.000000000000000000, -1.000000000000000000 ) ) ;
#76 = ORIENTED_EDGE ( 'NONE', *, *, #112, .T. ) ;
#77 = ORIENTED_EDGE ( 'NONE', *, *, #11, .F. ) ;
#78 = EDGE_CURVE ( 'NONE', #160, #51, #131, .T. ) ;
#79 =( NAMED_UNIT ( * ) SI_UNIT ( $, .STERADIAN. ) SOLID_ANGLE_UNIT ( ) );
#80 = EDGE_LOOP ( 'NONE', ( #135, #213 ) ) ;
#81 = LINE ( 'NONE', #158, #4 ) ;
#82 = LOCAL_TIME ( 13, 11, 55.00000000000000000, #153 ) ;
#83 = ORIENTED_EDGE ( 'NONE', *, *, #238, .F. ) ;
#84 = APPLICATION_PROTOCOL_DEFINITION ( 'international standard', 'config_control_design', 1994, #93 ) ;
#85 = CC_DESIGN_DATE_AND_TIME_ASSIGNMENT ( #148, #237, ( #217 ) ) ;
#86 = APPROVAL_ROLE ( '' ) ;
#87 = CIRCLE ( 'NONE', #146, 3.000000000000000444 ) ;
#88 = CC_DESIGN_PERSON_AND_ORGANIZATION_ASSIGNMENT ( #105, #108, ( #201 ) ) ;
#89 = COORDINATED_UNIVERSAL_TIME_OFFSET ( 1, 0, .AHEAD. ) ;
#90 = SECURITY_CLASSIFICATION_LEVEL ( 'unclassified' ) ;
#91 = AXIS2_PLACEMENT_3D ( 'NONE', #95, #177, #3 ) ;
#92 = EDGE_CURVE ( 'NONE', #180, #190, #171, .T. ) ;
#93 = APPLICATION_CONTEXT ( 'configuration controlled 3d designs of mechanical parts and assemblies' ) ;
#94 = CC_DESIGN_APPROVAL ( #21, ( #217 ) ) ;
#95 = CARTESIAN_POINT ( 'NONE',  ( 0.000000000000000000, 0.000000000000000000, 0.000000000000000000 ) ) ;
#96 = CLOSED_SHELL ( 'NONE', ( #235, #241, #20, #45, #102, #212, #149 ) ) ;
#97 = CARTESIAN_POINT ( 'NONE',  ( 0.000000000000000000, 0.000000000000000000, 250.0000000000000000 ) ) ;
#98 = EDGE_LOOP ( 'NONE', ( #99, #182, #141, #77 ) ) ;
#99 = ORIENTED_EDGE ( 'NONE', *, *, #223, .F. ) ;
#100 = MECHANICAL_CONTEXT ( 'NONE', #251, 'mechanical' ) ;
#101 = AXIS2_PLACEMENT_3D ( 'NONE', #56, #113, #40 ) ;
#102 = ADVANCED_FACE ( 'NONE', ( #130 ), #42, .F. ) ;
#103 = APPROVAL_ROLE ( '' ) ;
#104 = DIRECTION ( 'NONE',  ( -1.000000000000000000, 0.000000000000000000, 0.000000000000000000 ) ) ;
#105 = PERSON_AND_ORGANIZATION ( #195, #231 ) ;
#106 = CC_DESIGN_DATE_AND_TIME_ASSIGNMENT ( #5, #107, ( #196 ) ) ;
#107 = DATE_TIME_ROLE ( 'creation_date' ) ;
#108 = PERSON_AND_ORGANIZATION_ROLE ( 'creator' ) ;
#109 = CIRCLE ( 'NONE', #49, 1.600000000000000089 ) ;
#110 = PRODUCT_RELATED_PRODUCT_CATEGORY ( 'detail', '', ( #125 ) ) ;
#111 = DIRECTION ( 'NONE',  ( 0.000000000000000000, 0.000000000000000000, 1.000000000000000000 ) ) ;
#112 = EDGE_CURVE ( 'NONE', #24, #228, #109, .T. ) ;
#113 = DIRECTION ( 'NONE',  ( 0.000000000000000000, 0.000000000000000000, 1.000000000000000000 ) ) ;
#114 =( GEOMETRIC_REPRESENTATION_CONTEXT ( 3 ) GLOBAL_UNCERTAINTY_ASSIGNED_CONTEXT ( ( #142 ) ) GLOBAL_UNIT_ASSIGNED_CONTEXT ( ( #227, #2, #79 ) ) REPRESENTATION_CONTEXT ( 'NONE', 'WORKASPACE' ) );
#115 = DIRECTION ( 'NONE',  ( 0.000000000000000000, 0.000000000000000000, 1.000000000000000000 ) ) ;
#116 = AXIS2_PLACEMENT_3D ( 'NONE', #224, #75, #248 ) ;
#117 = LINE ( 'NONE', #211, #202 ) ;
#118 = LINE ( 'NONE', #204, #128 ) ;
#119 = DIRECTION ( 'NONE',  ( -0.000000000000000000, -0.000000000000000000, -1.000000000000000000 ) ) ;
#120 = CARTESIAN_POINT ( 'NONE',  ( 0.000000000000000000, 0.000000000000000000, 0.000000000000000000 ) ) ;
#121 = ORIENTED_EDGE ( 'NONE', *, *, #199, .F. ) ;
#122 = CARTESIAN_POINT ( 'NONE',  ( -3.000000000000000444, 0.000000000000000000, 3.000000000000000000 ) ) ;
#123 = ORIENTED_EDGE ( 'NONE', *, *, #92, .F. ) ;
#124 = EDGE_LOOP ( 'NONE', ( #83, #62 ) ) ;
#125 = PRODUCT ( '0c5c', '0c5c', '', ( #100 ) ) ;
#126 = APPROVAL_STATUS ( 'not_yet_approved' ) ;
#127 = EDGE_CURVE ( 'NONE', #190, #160, #117, .T. ) ;
#128 = VECTOR ( 'NONE', #226, 1000.000000000000000 ) ;
#129 = CC_DESIGN_APPROVAL ( #155, ( #201 ) ) ;
#130 = FACE_OUTER_BOUND ( 'NONE', #124, .T. ) ;
#131 = CIRCLE ( 'NONE', #33, 3.000000000000000444 ) ;
#132 = DIRECTION ( 'NONE',  ( 1.000000000000000000, 0.000000000000000000, 0.000000000000000000 ) ) ;
#133 = ADVANCED_BREP_SHAPE_REPRESENTATION ( '0c5c', ( #183, #1 ), #114 ) ;
#134 = LOCAL_TIME ( 13, 11, 55.00000000000000000, #189 ) ;
#135 = ORIENTED_EDGE ( 'NONE', *, *, #92, .T. ) ;
#136 = DIRECTION ( 'NONE',  ( -0.000000000000000000, -0.000000000000000000, -1.000000000000000000 ) ) ;
#137 = APPLICATION_PROTOCOL_DEFINITION ( 'international standard', 'config_control_design', 1994, #251 ) ;
#138 = ORIENTED_EDGE ( 'NONE', *, *, #66, .T. ) ;
#139 = DIRECTION ( 'NONE',  ( 1.000000000000000000, 0.000000000000000000, 0.000000000000000000 ) ) ;
#140 = EDGE_LOOP ( 'NONE', ( #38, #232, #250, #242 ) ) ;
#141 = ORIENTED_EDGE ( 'NONE', *, *, #78, .T. ) ;
#142 = UNCERTAINTY_MEASURE_WITH_UNIT (LENGTH_MEASURE( 1.000000000000000082E-05 ), #227, 'distance_accuracy_value', 'NONE');
#143 = CC_DESIGN_PERSON_AND_ORGANIZATION_ASSIGNMENT ( #55, #15, ( #201 ) ) ;
#144 = CALENDAR_DATE ( 2023, 12, 2 ) ;
#145 = DIRECTION ( 'NONE',  ( 0.000000000000000000, 0.000000000000000000, 1.000000000000000000 ) ) ;
#146 = AXIS2_PLACEMENT_3D ( 'NONE', #161, #246, #197 ) ;
#147 = AXIS2_PLACEMENT_3D ( 'NONE', #7, #47, #104 ) ;
#148 = DATE_AND_TIME ( #192, #25 ) ;
#149 = ADVANCED_FACE ( 'NONE', ( #233 ), #34, .T. ) ;
#150 = DIRECTION ( 'NONE',  ( 1.000000000000000000, 0.000000000000000000, -0.000000000000000000 ) ) ;
#151 = AXIS2_PLACEMENT_3D ( 'NONE', #97, #61, #139 ) ;
#152 = CARTESIAN_POINT ( 'NONE',  ( 0.000000000000000000, 0.000000000000000000, 3.000000000000000000 ) ) ;
#153 = COORDINATED_UNIVERSAL_TIME_OFFSET ( 1, 0, .AHEAD. ) ;
#154 = CIRCLE ( 'NONE', #16, 3.000000000000000444 ) ;
#155 = APPROVAL ( #126, 'NEURÈENÝ' ) ;
#156 = CARTESIAN_POINT ( 'NONE',  ( -3.000000000000000444, 0.000000000000000000, 3.000000000000000000 ) ) ;
#157 = EDGE_LOOP ( 'NONE', ( #222, #123, #163, #245 ) ) ;
#158 = CARTESIAN_POINT ( 'NONE',  ( 1.600000000000000089, 1.959434878635765230E-16, 250.0000000000000000 ) ) ;
#159 = CYLINDRICAL_SURFACE ( 'NONE', #116, 3.000000000000000444 ) ;
#160 = VERTEX_POINT ( 'NONE', #74 ) ;
#161 = CARTESIAN_POINT ( 'NONE',  ( 0.000000000000000000, 0.000000000000000000, 3.000000000000000000 ) ) ;
#162 = PERSON_AND_ORGANIZATION ( #195, #231 ) ;
#163 = ORIENTED_EDGE ( 'NONE', *, *, #11, .T. ) ;
#164 = ORIENTED_EDGE ( 'NONE', *, *, #18, .T. ) ;
#165 = APPROVAL_ROLE ( '' ) ;
#166 = AXIS2_PLACEMENT_3D ( 'NONE', #203, #13, #179 ) ;
#167 = SHAPE_DEFINITION_REPRESENTATION ( #54, #133 ) ;
#168 = PLANE ( 'NONE',  #12 ) ;
#169 = COORDINATED_UNIVERSAL_TIME_OFFSET ( 1, 0, .AHEAD. ) ;
#170 = PERSON_AND_ORGANIZATION ( #195, #231 ) ;
#171 = CIRCLE ( 'NONE', #210, 3.000000000000000444 ) ;
#172 = DIRECTION ( 'NONE',  ( 1.000000000000000000, 0.000000000000000000, 0.000000000000000000 ) ) ;
#173 = CC_DESIGN_PERSON_AND_ORGANIZATION_ASSIGNMENT ( #219, #175, ( #196 ) ) ;
#174 = DIRECTION ( 'NONE',  ( 1.000000000000000000, 0.000000000000000000, 0.000000000000000000 ) ) ;
#175 = PERSON_AND_ORGANIZATION_ROLE ( 'creator' ) ;
#176 = CARTESIAN_POINT ( 'NONE',  ( 0.000000000000000000, 0.000000000000000000, 0.000000000000000000 ) ) ;
#177 = DIRECTION ( 'NONE',  ( 0.000000000000000000, 0.000000000000000000, 1.000000000000000000 ) ) ;
#178 = APPROVAL_PERSON_ORGANIZATION ( #162, #220, #103 ) ;
#179 = DIRECTION ( 'NONE',  ( 1.000000000000000000, 0.000000000000000000, -0.000000000000000000 ) ) ;
#180 = VERTEX_POINT ( 'NONE', #156 ) ;
#181 = DIRECTION ( 'NONE',  ( 1.000000000000000000, 0.000000000000000000, 0.000000000000000000 ) ) ;
#182 = ORIENTED_EDGE ( 'NONE', *, *, #127, .T. ) ;
#183 = MANIFOLD_SOLID_BREP ( 'Pøidat vysunutím3', #96 ) ;
#184 = DIRECTION ( 'NONE',  ( -1.000000000000000000, 0.000000000000000000, 0.000000000000000000 ) ) ;
#185 = CARTESIAN_POINT ( 'NONE',  ( -1.600000000000000089, 0.000000000000000000, 3.000000000000000000 ) ) ;
#186 = CC_DESIGN_SECURITY_CLASSIFICATION ( #217, ( #201 ) ) ;
#187 = AXIS2_PLACEMENT_3D ( 'NONE', #69, #111, #172 ) ;
#188 = DIRECTION ( 'NONE',  ( -0.000000000000000000, -0.000000000000000000, -1.000000000000000000 ) ) ;
#189 = COORDINATED_UNIVERSAL_TIME_OFFSET ( 1, 0, .AHEAD. ) ;
#190 = VERTEX_POINT ( 'NONE', #59 ) ;
#191 = PERSON_AND_ORGANIZATION_ROLE ( 'classification_officer' ) ;
#192 = CALENDAR_DATE ( 2023, 12, 2 ) ;
#193 = AXIS2_PLACEMENT_3D ( 'NONE', #46, #119, #184 ) ;
#194 = CYLINDRICAL_SURFACE ( 'NONE', #72, 1.600000000000000089 ) ;
#195 = PERSON ( 'NEURÈENÝ', 'NEURÈENÝ', 'NEURÈENÝ', ('NEURÈENÝ'), ('NEURÈENÝ'), ('NEURÈENÝ') ) ;
#196 = PRODUCT_DEFINITION ( 'NEZNÁMÝ', '', #201, #35 ) ;
#197 = DIRECTION ( 'NONE',  ( 1.000000000000000000, 0.000000000000000000, 0.000000000000000000 ) ) ;
#198 = CC_DESIGN_APPROVAL ( #220, ( #196 ) ) ;
#199 = EDGE_CURVE ( 'NONE', #50, #228, #81, .T. ) ;
#200 = PERSON_AND_ORGANIZATION ( #195, #231 ) ;
#201 = PRODUCT_DEFINITION_FORMATION_WITH_SPECIFIED_SOURCE ( 'LIBOVOLNÝ', '', #125, .NOT_KNOWN. ) ;
#202 = VECTOR ( 'NONE', #188, 1000.000000000000000 ) ;
#203 = CARTESIAN_POINT ( 'NONE',  ( 0.000000000000000000, 0.000000000000000000, 250.0000000000000000 ) ) ;
#204 = CARTESIAN_POINT ( 'NONE',  ( -1.600000000000000089, 0.000000000000000000, 250.0000000000000000 ) ) ;
#205 = ORIENTED_EDGE ( 'NONE', *, *, #52, .F. ) ;
#206 = DIRECTION ( 'NONE',  ( 0.000000000000000000, 0.000000000000000000, 1.000000000000000000 ) ) ;
#207 = DIRECTION ( 'NONE',  ( 0.000000000000000000, 0.000000000000000000, 1.000000000000000000 ) ) ;
#208 = ORIENTED_EDGE ( 'NONE', *, *, #249, .T. ) ;
#209 = DIRECTION ( 'NONE',  ( 0.000000000000000000, 0.000000000000000000, 1.000000000000000000 ) ) ;
#210 = AXIS2_PLACEMENT_3D ( 'NONE', #152, #115, #239 ) ;
#211 = CARTESIAN_POINT ( 'NONE',  ( 3.000000000000000444, 3.673940397442060361E-16, 3.000000000000000000 ) ) ;
#212 = ADVANCED_FACE ( 'NONE', ( #243 ), #225, .T. ) ;
#213 = ORIENTED_EDGE ( 'NONE', *, *, #223, .T. ) ;
#214 = FACE_OUTER_BOUND ( 'NONE', #140, .T. ) ;
#215 = CIRCLE ( 'NONE', #151, 1.600000000000000089 ) ;
#216 = APPROVAL_STATUS ( 'not_yet_approved' ) ;
#217 = SECURITY_CLASSIFICATION ( '', '', #90 ) ;
#218 = APPROVAL_DATE_TIME ( #57, #220 ) ;
#219 = PERSON_AND_ORGANIZATION ( #195, #231 ) ;
#220 = APPROVAL ( #22, 'NEURÈENÝ' ) ;
#221 = CIRCLE ( 'NONE', #101, 1.600000000000000089 ) ;
#222 = ORIENTED_EDGE ( 'NONE', *, *, #127, .F. ) ;
#223 = EDGE_CURVE ( 'NONE', #190, #180, #87, .T. ) ;
#224 = CARTESIAN_POINT ( 'NONE',  ( 0.000000000000000000, 0.000000000000000000, 3.000000000000000000 ) ) ;
#225 = CYLINDRICAL_SURFACE ( 'NONE', #193, 1.600000000000000089 ) ;
#226 = DIRECTION ( 'NONE',  ( -0.000000000000000000, -0.000000000000000000, -1.000000000000000000 ) ) ;
#227 =( LENGTH_UNIT ( ) NAMED_UNIT ( * ) SI_UNIT ( .MILLI., .METRE. ) );
#228 = VERTEX_POINT ( 'NONE', #68 ) ;
#229 = FACE_OUTER_BOUND ( 'NONE', #157, .T. ) ;
#230 = PERSON_AND_ORGANIZATION ( #195, #231 ) ;
#231 = ORGANIZATION ( 'NEURÈENÝ', 'NEURÈENÝ', '' ) ;
#232 = ORIENTED_EDGE ( 'NONE', *, *, #199, .T. ) ;
#233 = FACE_OUTER_BOUND ( 'NONE', #64, .T. ) ;
#234 = APPROVAL_DATE_TIME ( #65, #21 ) ;
#235 = ADVANCED_FACE ( 'NONE', ( #214 ), #194, .T. ) ;
#236 = CARTESIAN_POINT ( 'NONE',  ( -3.000000000000000444, 0.000000000000000000, 0.000000000000000000 ) ) ;
#237 = DATE_TIME_ROLE ( 'classification_date' ) ;
#238 = EDGE_CURVE ( 'NONE', #51, #160, #154, .T. ) ;
#239 = DIRECTION ( 'NONE',  ( 1.000000000000000000, 0.000000000000000000, 0.000000000000000000 ) ) ;
#240 = APPROVAL_PERSON_ORGANIZATION ( #230, #155, #86 ) ;
#241 = ADVANCED_FACE ( 'NONE', ( #30 ), #159, .T. ) ;
#242 = ORIENTED_EDGE ( 'NONE', *, *, #18, .F. ) ;
#243 = FACE_OUTER_BOUND ( 'NONE', #29, .T. ) ;
#244 = LOCAL_TIME ( 13, 11, 55.00000000000000000, #252 ) ;
#245 = ORIENTED_EDGE ( 'NONE', *, *, #238, .T. ) ;
#246 = DIRECTION ( 'NONE',  ( 0.000000000000000000, 0.000000000000000000, 1.000000000000000000 ) ) ;
#247 = FACE_BOUND ( 'NONE', #31, .T. ) ;
#248 = DIRECTION ( 'NONE',  ( -1.000000000000000000, 0.000000000000000000, 0.000000000000000000 ) ) ;
#249 = EDGE_CURVE ( 'NONE', #6, #50, #215, .T. ) ;
#250 = ORIENTED_EDGE ( 'NONE', *, *, #52, .T. ) ;
#251 = APPLICATION_CONTEXT ( 'configuration controlled 3d designs of mechanical parts and assemblies' ) ;
#252 = COORDINATED_UNIVERSAL_TIME_OFFSET ( 1, 0, .AHEAD. ) ;
#253 = VECTOR ( 'NONE', #32, 1000.000000000000000 ) ;
#254 = PERSON_AND_ORGANIZATION ( #195, #231 ) ;
#255 = CARTESIAN_POINT ( 'NONE',  ( 1.600000000000000089, 1.959434878635765230E-16, 250.0000000000000000 ) ) ;
ENDSEC;
END-ISO-10303-21;
