ISO-10303-21;
HEADER;
FILE_DESCRIPTION (( 'STEP AP203' ),
    '1' );
FILE_NAME ('8a14.STEP',
    '2023-02-12T11:51:15',
    ( '' ),
    ( '' ),
    'SwSTEP 2.0',
    'SolidWorks 2019',
    '' );
FILE_SCHEMA (( 'CONFIG_CONTROL_DESIGN' ));
ENDSEC;

DATA;
#1 = CARTESIAN_POINT ( 'NONE',  ( 0.000000000000000000, 0.000000000000000000, 3.000000000000000000 ) ) ;
#2 = CARTESIAN_POINT ( 'NONE',  ( 0.000000000000000000, 0.000000000000000000, 250.0000000000000000 ) ) ;
#3 = LOCAL_TIME ( 12, 51, 15.00000000000000000, #15 ) ;
#4 = APPROVAL_ROLE ( '' ) ;
#5 = CARTESIAN_POINT ( 'NONE',  ( 0.000000000000000000, 0.000000000000000000, 250.0000000000000000 ) ) ;
#6 = CC_DESIGN_PERSON_AND_ORGANIZATION_ASSIGNMENT ( #139, #220, ( #159 ) ) ;
#7 =( NAMED_UNIT ( * ) PLANE_ANGLE_UNIT ( ) SI_UNIT ( $, .RADIAN. ) );
#8 = CIRCLE ( 'NONE', #41, 5.000000000000000000 ) ;
#9 = ORIENTED_EDGE ( 'NONE', *, *, #253, .T. ) ;
#10 = APPROVAL_STATUS ( 'not_yet_approved' ) ;
#11 = ORIENTED_EDGE ( 'NONE', *, *, #192, .T. ) ;
#12 = EDGE_CURVE ( 'NONE', #164, #250, #59, .T. ) ;
#13 = ORIENTED_EDGE ( 'NONE', *, *, #12, .F. ) ;
#14 = DIRECTION ( 'NONE',  ( 1.000000000000000000, 0.000000000000000000, -0.000000000000000000 ) ) ;
#15 = COORDINATED_UNIVERSAL_TIME_OFFSET ( 1, 0, .AHEAD. ) ;
#16 = APPROVAL_PERSON_ORGANIZATION ( #88, #25, #231 ) ;
#17 = PERSON_AND_ORGANIZATION_ROLE ( 'design_supplier' ) ;
#18 = DIRECTION ( 'NONE',  ( 0.000000000000000000, 0.000000000000000000, 1.000000000000000000 ) ) ;
#19 = CC_DESIGN_DATE_AND_TIME_ASSIGNMENT ( #202, #179, ( #245 ) ) ;
#20 = CARTESIAN_POINT ( 'NONE',  ( -5.000000000000000000, 0.000000000000000000, 3.000000000000000000 ) ) ;
#21 = MANIFOLD_SOLID_BREP ( 'Pøidat vysunutím3', #181 ) ;
#22 = CARTESIAN_POINT ( 'NONE',  ( 5.000000000000000000, 6.123233995736766282E-16, 0.000000000000000000 ) ) ;
#23 = CARTESIAN_POINT ( 'NONE',  ( 0.000000000000000000, 0.000000000000000000, 0.000000000000000000 ) ) ;
#24 = DIRECTION ( 'NONE',  ( 0.000000000000000000, 0.000000000000000000, 1.000000000000000000 ) ) ;
#25 = APPROVAL ( #165, 'NEURÈENÝ' ) ;
#26 = VERTEX_POINT ( 'NONE', #116 ) ;
#27 = EDGE_LOOP ( 'NONE', ( #84, #11, #86, #102 ) ) ;
#28 = ORIENTED_EDGE ( 'NONE', *, *, #12, .T. ) ;
#29 = CC_DESIGN_PERSON_AND_ORGANIZATION_ASSIGNMENT ( #34, #17, ( #78 ) ) ;
#30 = APPLICATION_CONTEXT ( 'configuration controlled 3d designs of mechanical parts and assemblies' ) ;
#31 = AXIS2_PLACEMENT_3D ( 'NONE', #36, #129, #254 ) ;
#32 = EDGE_LOOP ( 'NONE', ( #28, #223 ) ) ;
#33 = DIRECTION ( 'NONE',  ( -1.000000000000000000, 0.000000000000000000, 0.000000000000000000 ) ) ;
#34 = PERSON_AND_ORGANIZATION ( #58, #218 ) ;
#35 = EDGE_CURVE ( 'NONE', #164, #205, #232, .T. ) ;
#36 = CARTESIAN_POINT ( 'NONE',  ( 0.000000000000000000, 0.000000000000000000, 250.0000000000000000 ) ) ;
#37 = PERSON_AND_ORGANIZATION_ROLE ( 'creator' ) ;
#38 = FACE_OUTER_BOUND ( 'NONE', #107, .T. ) ;
#39 = FACE_OUTER_BOUND ( 'NONE', #206, .T. ) ;
#40 = DIRECTION ( 'NONE',  ( -0.000000000000000000, -0.000000000000000000, -1.000000000000000000 ) ) ;
#41 = AXIS2_PLACEMENT_3D ( 'NONE', #23, #24, #61 ) ;
#42 = DIRECTION ( 'NONE',  ( 0.000000000000000000, 0.000000000000000000, 1.000000000000000000 ) ) ;
#43 = DIRECTION ( 'NONE',  ( 1.000000000000000000, 0.000000000000000000, 0.000000000000000000 ) ) ;
#44 = CARTESIAN_POINT ( 'NONE',  ( 5.000000000000000000, 6.123233995736766282E-16, 3.000000000000000000 ) ) ;
#45 = CALENDAR_DATE ( 2023, 12, 2 ) ;
#46 = PERSON_AND_ORGANIZATION ( #58, #218 ) ;
#47 = AXIS2_PLACEMENT_3D ( 'NONE', #77, #234, #14 ) ;
#48 = ADVANCED_FACE ( 'NONE', ( #95 ), #73, .T. ) ;
#49 = ORIENTED_EDGE ( 'NONE', *, *, #62, .F. ) ;
#50 = CARTESIAN_POINT ( 'NONE',  ( 0.000000000000000000, 0.000000000000000000, 3.000000000000000000 ) ) ;
#51 = APPROVAL_DATE_TIME ( #168, #184 ) ;
#52 = DIRECTION ( 'NONE',  ( 1.000000000000000000, 0.000000000000000000, 0.000000000000000000 ) ) ;
#53 = FACE_OUTER_BOUND ( 'NONE', #32, .T. ) ;
#54 = DIRECTION ( 'NONE',  ( -0.000000000000000000, -0.000000000000000000, -1.000000000000000000 ) ) ;
#55 = AXIS2_PLACEMENT_3D ( 'NONE', #155, #241, #199 ) ;
#56 = DIRECTION ( 'NONE',  ( 0.000000000000000000, 0.000000000000000000, 1.000000000000000000 ) ) ;
#57 = CARTESIAN_POINT ( 'NONE',  ( 2.500000000000000000, 3.061616997868383141E-16, 250.0000000000000000 ) ) ;
#58 = PERSON ( 'NEURÈENÝ', 'NEURÈENÝ', 'NEURÈENÝ', ('NEURÈENÝ'), ('NEURÈENÝ'), ('NEURÈENÝ') ) ;
#59 = CIRCLE ( 'NONE', #152, 5.000000000000000000 ) ;
#60 = CARTESIAN_POINT ( 'NONE',  ( 2.500000000000000000, 3.061616997868383141E-16, 250.0000000000000000 ) ) ;
#61 = DIRECTION ( 'NONE',  ( 1.000000000000000000, 0.000000000000000000, 0.000000000000000000 ) ) ;
#62 = EDGE_CURVE ( 'NONE', #208, #26, #71, .T. ) ;
#63 = COORDINATED_UNIVERSAL_TIME_OFFSET ( 1, 0, .AHEAD. ) ;
#64 = ORIENTED_EDGE ( 'NONE', *, *, #94, .F. ) ;
#65 = CC_DESIGN_PERSON_AND_ORGANIZATION_ASSIGNMENT ( #166, #110, ( #189 ) ) ;
#66 = VECTOR ( 'NONE', #130, 1000.000000000000000 ) ;
#67 = ORIENTED_EDGE ( 'NONE', *, *, #35, .F. ) ;
#68 = ORIENTED_EDGE ( 'NONE', *, *, #233, .T. ) ;
#69 = SHAPE_DEFINITION_REPRESENTATION ( #221, #157 ) ;
#70 = DIRECTION ( 'NONE',  ( 0.000000000000000000, 0.000000000000000000, 1.000000000000000000 ) ) ;
#71 = CIRCLE ( 'NONE', #109, 2.500000000000000000 ) ;
#72 = EDGE_CURVE ( 'NONE', #144, #204, #140, .T. ) ;
#73 = CYLINDRICAL_SURFACE ( 'NONE', #197, 2.500000000000000000 ) ;
#74 = VECTOR ( 'NONE', #230, 1000.000000000000000 ) ;
#75 = CIRCLE ( 'NONE', #99, 5.000000000000000000 ) ;
#76 = CC_DESIGN_SECURITY_CLASSIFICATION ( #189, ( #78 ) ) ;
#77 = CARTESIAN_POINT ( 'NONE',  ( 0.000000000000000000, 0.000000000000000000, 250.0000000000000000 ) ) ;
#78 = PRODUCT_DEFINITION_FORMATION_WITH_SPECIFIED_SOURCE ( 'LIBOVOLNÝ', '', #159, .NOT_KNOWN. ) ;
#79 = EDGE_CURVE ( 'NONE', #26, #208, #248, .T. ) ;
#80 = APPLICATION_PROTOCOL_DEFINITION ( 'international standard', 'config_control_design', 1994, #111 ) ;
#81 = PERSON_AND_ORGANIZATION_ROLE ( 'creator' ) ;
#82 = CC_DESIGN_APPROVAL ( #137, ( #245 ) ) ;
#83 = ORIENTED_EDGE ( 'NONE', *, *, #192, .F. ) ;
#84 = ORIENTED_EDGE ( 'NONE', *, *, #72, .F. ) ;
#85 = APPROVAL_ROLE ( '' ) ;
#86 = ORIENTED_EDGE ( 'NONE', *, *, #79, .T. ) ;
#87 = ORIENTED_EDGE ( 'NONE', *, *, #233, .F. ) ;
#88 = PERSON_AND_ORGANIZATION ( #58, #218 ) ;
#89 = EDGE_LOOP ( 'NONE', ( #64, #13, #203, #68 ) ) ;
#90 = CARTESIAN_POINT ( 'NONE',  ( 0.000000000000000000, 0.000000000000000000, 3.000000000000000000 ) ) ;
#91 = VECTOR ( 'NONE', #54, 1000.000000000000000 ) ;
#92 = COORDINATED_UNIVERSAL_TIME_OFFSET ( 1, 0, .AHEAD. ) ;
#93 = DIRECTION ( 'NONE',  ( -0.000000000000000000, -0.000000000000000000, -1.000000000000000000 ) ) ;
#94 = EDGE_CURVE ( 'NONE', #250, #180, #171, .T. ) ;
#95 = FACE_OUTER_BOUND ( 'NONE', #27, .T. ) ;
#96 = DESIGN_CONTEXT ( 'detailed design', #30, 'design' ) ;
#97 = DIRECTION ( 'NONE',  ( -1.000000000000000000, 0.000000000000000000, 0.000000000000000000 ) ) ;
#98 = AXIS2_PLACEMENT_3D ( 'NONE', #194, #18, #146 ) ;
#99 = AXIS2_PLACEMENT_3D ( 'NONE', #217, #222, #43 ) ;
#100 = PLANE ( 'NONE',  #127 ) ;
#101 = DIRECTION ( 'NONE',  ( 1.000000000000000000, 0.000000000000000000, -0.000000000000000000 ) ) ;
#102 = ORIENTED_EDGE ( 'NONE', *, *, #120, .F. ) ;
#103 = FACE_OUTER_BOUND ( 'NONE', #142, .T. ) ;
#104 =( NAMED_UNIT ( * ) SI_UNIT ( $, .STERADIAN. ) SOLID_ANGLE_UNIT ( ) );
#105 = DIRECTION ( 'NONE',  ( -1.000000000000000000, 0.000000000000000000, 0.000000000000000000 ) ) ;
#106 = APPROVAL_PERSON_ORGANIZATION ( #243, #184, #85 ) ;
#107 = EDGE_LOOP ( 'NONE', ( #183, #224, #200, #67 ) ) ;
#108 = ORIENTED_EDGE ( 'NONE', *, *, #72, .T. ) ;
#109 = AXIS2_PLACEMENT_3D ( 'NONE', #1, #252, #147 ) ;
#110 = PERSON_AND_ORGANIZATION_ROLE ( 'classification_officer' ) ;
#111 = APPLICATION_CONTEXT ( 'configuration controlled 3d designs of mechanical parts and assemblies' ) ;
#112 = FACE_OUTER_BOUND ( 'NONE', #89, .T. ) ;
#113 = SECURITY_CLASSIFICATION_LEVEL ( 'unclassified' ) ;
#114 = DIRECTION ( 'NONE',  ( -1.000000000000000000, 0.000000000000000000, 0.000000000000000000 ) ) ;
#115 = ADVANCED_FACE ( 'NONE', ( #38 ), #150, .T. ) ;
#116 = CARTESIAN_POINT ( 'NONE',  ( 2.500000000000000000, 3.061616997868383141E-16, 3.000000000000000000 ) ) ;
#117 = DATE_AND_TIME ( #128, #3 ) ;
#118 = CARTESIAN_POINT ( 'NONE',  ( 5.000000000000000000, 6.123233995736766282E-16, 3.000000000000000000 ) ) ;
#119 = CYLINDRICAL_SURFACE ( 'NONE', #156, 2.500000000000000000 ) ;
#120 = EDGE_CURVE ( 'NONE', #204, #208, #148, .T. ) ;
#121 = MECHANICAL_CONTEXT ( 'NONE', #111, 'mechanical' ) ;
#122 = CARTESIAN_POINT ( 'NONE',  ( -2.500000000000000000, 0.000000000000000000, 3.000000000000000000 ) ) ;
#123 = DIRECTION ( 'NONE',  ( 1.000000000000000000, 0.000000000000000000, 0.000000000000000000 ) ) ;
#124 = ADVANCED_FACE ( 'NONE', ( #39 ), #170, .T. ) ;
#125 = DIRECTION ( 'NONE',  ( 0.000000000000000000, 0.000000000000000000, 1.000000000000000000 ) ) ;
#126 = PERSON_AND_ORGANIZATION ( #58, #218 ) ;
#127 = AXIS2_PLACEMENT_3D ( 'NONE', #213, #70, #212 ) ;
#128 = CALENDAR_DATE ( 2023, 12, 2 ) ;
#129 = DIRECTION ( 'NONE',  ( 0.000000000000000000, 0.000000000000000000, 1.000000000000000000 ) ) ;
#130 = DIRECTION ( 'NONE',  ( -0.000000000000000000, -0.000000000000000000, -1.000000000000000000 ) ) ;
#131 = APPROVAL_DATE_TIME ( #117, #25 ) ;
#132 = DIRECTION ( 'NONE',  ( -0.000000000000000000, -0.000000000000000000, -1.000000000000000000 ) ) ;
#133 = FACE_OUTER_BOUND ( 'NONE', #160, .T. ) ;
#134 = PLANE ( 'NONE',  #207 ) ;
#135 = LOCAL_TIME ( 12, 51, 15.00000000000000000, #162 ) ;
#136 = APPLICATION_PROTOCOL_DEFINITION ( 'international standard', 'config_control_design', 1994, #30 ) ;
#137 = APPROVAL ( #201, 'NEURÈENÝ' ) ;
#138 =( LENGTH_UNIT ( ) NAMED_UNIT ( * ) SI_UNIT ( .MILLI., .METRE. ) );
#139 = PERSON_AND_ORGANIZATION ( #58, #218 ) ;
#140 = CIRCLE ( 'NONE', #31, 2.500000000000000000 ) ;
#141 = CC_DESIGN_APPROVAL ( #25, ( #189 ) ) ;
#142 = EDGE_LOOP ( 'NONE', ( #87, #228 ) ) ;
#143 = VECTOR ( 'NONE', #40, 1000.000000000000000 ) ;
#144 = VERTEX_POINT ( 'NONE', #57 ) ;
#145 = EDGE_LOOP ( 'NONE', ( #49, #177 ) ) ;
#146 = DIRECTION ( 'NONE',  ( 1.000000000000000000, 0.000000000000000000, 0.000000000000000000 ) ) ;
#147 = DIRECTION ( 'NONE',  ( 1.000000000000000000, 0.000000000000000000, 0.000000000000000000 ) ) ;
#148 = LINE ( 'NONE', #215, #66 ) ;
#149 = AXIS2_PLACEMENT_3D ( 'NONE', #237, #174, #123 ) ;
#150 = CYLINDRICAL_SURFACE ( 'NONE', #225, 5.000000000000000000 ) ;
#151 = LINE ( 'NONE', #60, #143 ) ;
#152 = AXIS2_PLACEMENT_3D ( 'NONE', #50, #56, #52 ) ;
#153 = ADVANCED_FACE ( 'NONE', ( #133 ), #119, .T. ) ;
#154 = CARTESIAN_POINT ( 'NONE',  ( -5.000000000000000000, 0.000000000000000000, 0.000000000000000000 ) ) ;
#155 = CARTESIAN_POINT ( 'NONE',  ( 0.000000000000000000, 0.000000000000000000, 3.000000000000000000 ) ) ;
#156 = AXIS2_PLACEMENT_3D ( 'NONE', #216, #195, #33 ) ;
#157 = ADVANCED_BREP_SHAPE_REPRESENTATION ( '8a14', ( #21, #149 ), #198 ) ;
#158 = CC_DESIGN_DATE_AND_TIME_ASSIGNMENT ( #211, #251, ( #189 ) ) ;
#159 = PRODUCT ( '8a14', '8a14', '', ( #121 ) ) ;
#160 = EDGE_LOOP ( 'NONE', ( #83, #247, #175, #244 ) ) ;
#161 = CC_DESIGN_PERSON_AND_ORGANIZATION_ASSIGNMENT ( #255, #37, ( #78 ) ) ;
#162 = COORDINATED_UNIVERSAL_TIME_OFFSET ( 1, 0, .AHEAD. ) ;
#163 = DATE_AND_TIME ( #246, #182 ) ;
#164 = VERTEX_POINT ( 'NONE', #20 ) ;
#165 = APPROVAL_STATUS ( 'not_yet_approved' ) ;
#166 = PERSON_AND_ORGANIZATION ( #58, #218 ) ;
#167 = FACE_BOUND ( 'NONE', #145, .T. ) ;
#168 = DATE_AND_TIME ( #190, #135 ) ;
#169 = ADVANCED_FACE ( 'NONE', ( #167, #53 ), #100, .T. ) ;
#170 = PLANE ( 'NONE',  #47 ) ;
#171 = LINE ( 'NONE', #118, #91 ) ;
#172 = DIRECTION ( 'NONE',  ( 1.000000000000000000, 0.000000000000000000, 0.000000000000000000 ) ) ;
#173 = CARTESIAN_POINT ( 'NONE',  ( 0.000000000000000000, 0.000000000000000000, 0.000000000000000000 ) ) ;
#174 = DIRECTION ( 'NONE',  ( 0.000000000000000000, 0.000000000000000000, 1.000000000000000000 ) ) ;
#175 = ORIENTED_EDGE ( 'NONE', *, *, #120, .T. ) ;
#176 = AXIS2_PLACEMENT_3D ( 'NONE', #5, #125, #172 ) ;
#177 = ORIENTED_EDGE ( 'NONE', *, *, #79, .F. ) ;
#178 = ADVANCED_FACE ( 'NONE', ( #112 ), #185, .T. ) ;
#179 = DATE_TIME_ROLE ( 'creation_date' ) ;
#180 = VERTEX_POINT ( 'NONE', #22 ) ;
#181 = CLOSED_SHELL ( 'NONE', ( #48, #115, #178, #169, #219, #153, #124 ) ) ;
#182 = LOCAL_TIME ( 12, 51, 15.00000000000000000, #235 ) ;
#183 = ORIENTED_EDGE ( 'NONE', *, *, #210, .F. ) ;
#184 = APPROVAL ( #10, 'NEURÈENÝ' ) ;
#185 = CYLINDRICAL_SURFACE ( 'NONE', #188, 5.000000000000000000 ) ;
#186 = CALENDAR_DATE ( 2023, 12, 2 ) ;
#187 = CARTESIAN_POINT ( 'NONE',  ( -5.000000000000000000, 0.000000000000000000, 3.000000000000000000 ) ) ;
#188 = AXIS2_PLACEMENT_3D ( 'NONE', #90, #240, #105 ) ;
#189 = SECURITY_CLASSIFICATION ( '', '', #113 ) ;
#190 = CALENDAR_DATE ( 2023, 12, 2 ) ;
#191 = CARTESIAN_POINT ( 'NONE',  ( 0.000000000000000000, 0.000000000000000000, 3.000000000000000000 ) ) ;
#192 = EDGE_CURVE ( 'NONE', #144, #26, #151, .T. ) ;
#193 = UNCERTAINTY_MEASURE_WITH_UNIT (LENGTH_MEASURE( 1.000000000000000082E-05 ), #138, 'distance_accuracy_value', 'NONE');
#194 = CARTESIAN_POINT ( 'NONE',  ( 0.000000000000000000, 0.000000000000000000, 3.000000000000000000 ) ) ;
#195 = DIRECTION ( 'NONE',  ( -0.000000000000000000, -0.000000000000000000, -1.000000000000000000 ) ) ;
#196 = CARTESIAN_POINT ( 'NONE',  ( -2.500000000000000000, 0.000000000000000000, 250.0000000000000000 ) ) ;
#197 = AXIS2_PLACEMENT_3D ( 'NONE', #2, #93, #97 ) ;
#198 =( GEOMETRIC_REPRESENTATION_CONTEXT ( 3 ) GLOBAL_UNCERTAINTY_ASSIGNED_CONTEXT ( ( #193 ) ) GLOBAL_UNIT_ASSIGNED_CONTEXT ( ( #138, #7, #104 ) ) REPRESENTATION_CONTEXT ( 'NONE', 'WORKASPACE' ) );
#199 = DIRECTION ( 'NONE',  ( 1.000000000000000000, 0.000000000000000000, 0.000000000000000000 ) ) ;
#200 = ORIENTED_EDGE ( 'NONE', *, *, #236, .T. ) ;
#201 = APPROVAL_STATUS ( 'not_yet_approved' ) ;
#202 = DATE_AND_TIME ( #45, #229 ) ;
#203 = ORIENTED_EDGE ( 'NONE', *, *, #35, .T. ) ;
#204 = VERTEX_POINT ( 'NONE', #196 ) ;
#205 = VERTEX_POINT ( 'NONE', #154 ) ;
#206 = EDGE_LOOP ( 'NONE', ( #9, #108 ) ) ;
#207 = AXIS2_PLACEMENT_3D ( 'NONE', #173, #42, #101 ) ;
#208 = VERTEX_POINT ( 'NONE', #122 ) ;
#209 = LOCAL_TIME ( 12, 51, 15.00000000000000000, #92 ) ;
#210 = EDGE_CURVE ( 'NONE', #250, #164, #249, .T. ) ;
#211 = DATE_AND_TIME ( #186, #209 ) ;
#212 = DIRECTION ( 'NONE',  ( 1.000000000000000000, 0.000000000000000000, -0.000000000000000000 ) ) ;
#213 = CARTESIAN_POINT ( 'NONE',  ( 0.000000000000000000, 0.000000000000000000, 3.000000000000000000 ) ) ;
#214 = CC_DESIGN_PERSON_AND_ORGANIZATION_ASSIGNMENT ( #46, #81, ( #245 ) ) ;
#215 = CARTESIAN_POINT ( 'NONE',  ( -2.500000000000000000, 0.000000000000000000, 250.0000000000000000 ) ) ;
#216 = CARTESIAN_POINT ( 'NONE',  ( 0.000000000000000000, 0.000000000000000000, 250.0000000000000000 ) ) ;
#217 = CARTESIAN_POINT ( 'NONE',  ( 0.000000000000000000, 0.000000000000000000, 0.000000000000000000 ) ) ;
#218 = ORGANIZATION ( 'NEURÈENÝ', 'NEURÈENÝ', '' ) ;
#219 = ADVANCED_FACE ( 'NONE', ( #103 ), #134, .F. ) ;
#220 = PERSON_AND_ORGANIZATION_ROLE ( 'design_owner' ) ;
#221 = PRODUCT_DEFINITION_SHAPE ( 'NONE', 'NONE',  #245 ) ;
#222 = DIRECTION ( 'NONE',  ( 0.000000000000000000, 0.000000000000000000, 1.000000000000000000 ) ) ;
#223 = ORIENTED_EDGE ( 'NONE', *, *, #210, .T. ) ;
#224 = ORIENTED_EDGE ( 'NONE', *, *, #94, .T. ) ;
#225 = AXIS2_PLACEMENT_3D ( 'NONE', #191, #132, #114 ) ;
#226 = CC_DESIGN_APPROVAL ( #184, ( #78 ) ) ;
#227 = APPROVAL_DATE_TIME ( #163, #137 ) ;
#228 = ORIENTED_EDGE ( 'NONE', *, *, #236, .F. ) ;
#229 = LOCAL_TIME ( 12, 51, 15.00000000000000000, #63 ) ;
#230 = DIRECTION ( 'NONE',  ( -0.000000000000000000, -0.000000000000000000, -1.000000000000000000 ) ) ;
#231 = APPROVAL_ROLE ( '' ) ;
#232 = LINE ( 'NONE', #187, #74 ) ;
#233 = EDGE_CURVE ( 'NONE', #205, #180, #8, .T. ) ;
#234 = DIRECTION ( 'NONE',  ( 0.000000000000000000, 0.000000000000000000, 1.000000000000000000 ) ) ;
#235 = COORDINATED_UNIVERSAL_TIME_OFFSET ( 1, 0, .AHEAD. ) ;
#236 = EDGE_CURVE ( 'NONE', #180, #205, #75, .T. ) ;
#237 = CARTESIAN_POINT ( 'NONE',  ( 0.000000000000000000, 0.000000000000000000, 0.000000000000000000 ) ) ;
#238 = APPROVAL_PERSON_ORGANIZATION ( #126, #137, #4 ) ;
#239 = PRODUCT_RELATED_PRODUCT_CATEGORY ( 'detail', '', ( #159 ) ) ;
#240 = DIRECTION ( 'NONE',  ( -0.000000000000000000, -0.000000000000000000, -1.000000000000000000 ) ) ;
#241 = DIRECTION ( 'NONE',  ( 0.000000000000000000, 0.000000000000000000, 1.000000000000000000 ) ) ;
#242 = CIRCLE ( 'NONE', #176, 2.500000000000000000 ) ;
#243 = PERSON_AND_ORGANIZATION ( #58, #218 ) ;
#244 = ORIENTED_EDGE ( 'NONE', *, *, #62, .T. ) ;
#245 = PRODUCT_DEFINITION ( 'NEZNÁMÝ', '', #78, #96 ) ;
#246 = CALENDAR_DATE ( 2023, 12, 2 ) ;
#247 = ORIENTED_EDGE ( 'NONE', *, *, #253, .F. ) ;
#248 = CIRCLE ( 'NONE', #98, 2.500000000000000000 ) ;
#249 = CIRCLE ( 'NONE', #55, 5.000000000000000000 ) ;
#250 = VERTEX_POINT ( 'NONE', #44 ) ;
#251 = DATE_TIME_ROLE ( 'classification_date' ) ;
#252 = DIRECTION ( 'NONE',  ( 0.000000000000000000, 0.000000000000000000, 1.000000000000000000 ) ) ;
#253 = EDGE_CURVE ( 'NONE', #204, #144, #242, .T. ) ;
#254 = DIRECTION ( 'NONE',  ( 1.000000000000000000, 0.000000000000000000, 0.000000000000000000 ) ) ;
#255 = PERSON_AND_ORGANIZATION ( #58, #218 ) ;
ENDSEC;
END-ISO-10303-21;
