ISO-10303-21;
HEADER;
FILE_DESCRIPTION (( 'STEP AP203' ),
    '1' );
FILE_NAME ('19ca.STEP',
    '2023-02-12T12:14:51',
    ( '' ),
    ( '' ),
    'SwSTEP 2.0',
    'SolidWorks 2019',
    '' );
FILE_SCHEMA (( 'CONFIG_CONTROL_DESIGN' ));
ENDSEC;

DATA;
#1 = CARTESIAN_POINT ( 'NONE',  ( 0.000000000000000000, 0.000000000000000000, 0.000000000000000000 ) ) ;
#2 = PERSON_AND_ORGANIZATION_ROLE ( 'design_owner' ) ;
#3 = APPROVAL_PERSON_ORGANIZATION ( #146, #190, #192 ) ;
#4 = APPROVAL ( #255, 'NEURÈENÝ' ) ;
#5 =( LENGTH_UNIT ( ) NAMED_UNIT ( * ) SI_UNIT ( .MILLI., .METRE. ) );
#6 =( NAMED_UNIT ( * ) PLANE_ANGLE_UNIT ( ) SI_UNIT ( $, .RADIAN. ) );
#7 = APPLICATION_CONTEXT ( 'configuration controlled 3d designs of mechanical parts and assemblies' ) ;
#8 = ORIENTED_EDGE ( 'NONE', *, *, #49, .T. ) ;
#9 = PERSON_AND_ORGANIZATION ( #86, #136 ) ;
#10 = DIRECTION ( 'NONE',  ( -0.000000000000000000, -0.000000000000000000, -1.000000000000000000 ) ) ;
#11 = EDGE_CURVE ( 'NONE', #116, #37, #182, .T. ) ;
#12 = DIRECTION ( 'NONE',  ( 1.000000000000000000, 0.000000000000000000, 0.000000000000000000 ) ) ;
#13 = CIRCLE ( 'NONE', #14, 1.250000000000000000 ) ;
#14 = AXIS2_PLACEMENT_3D ( 'NONE', #145, #186, #87 ) ;
#15 = CARTESIAN_POINT ( 'NONE',  ( 0.000000000000000000, 0.000000000000000000, 2.000000000000000000 ) ) ;
#16 = CARTESIAN_POINT ( 'NONE',  ( 0.000000000000000000, 0.000000000000000000, 200.0000000000000000 ) ) ;
#17 = AXIS2_PLACEMENT_3D ( 'NONE', #63, #216, #42 ) ;
#18 = SECURITY_CLASSIFICATION_LEVEL ( 'unclassified' ) ;
#19 = LOCAL_TIME ( 13, 14, 51.00000000000000000, #61 ) ;
#20 = EDGE_LOOP ( 'NONE', ( #102, #79 ) ) ;
#21 = FACE_OUTER_BOUND ( 'NONE', #224, .T. ) ;
#22 = FACE_OUTER_BOUND ( 'NONE', #193, .T. ) ;
#23 = DIRECTION ( 'NONE',  ( -1.000000000000000000, 0.000000000000000000, 0.000000000000000000 ) ) ;
#24 = FACE_BOUND ( 'NONE', #20, .T. ) ;
#25 = PRODUCT_RELATED_PRODUCT_CATEGORY ( 'detail', '', ( #104 ) ) ;
#26 = PLANE ( 'NONE',  #17 ) ;
#27 = CARTESIAN_POINT ( 'NONE',  ( -1.250000000000000000, 0.000000000000000000, 200.0000000000000000 ) ) ;
#28 = COORDINATED_UNIVERSAL_TIME_OFFSET ( 1, 0, .AHEAD. ) ;
#29 = DIRECTION ( 'NONE',  ( 0.000000000000000000, 0.000000000000000000, 1.000000000000000000 ) ) ;
#30 = CARTESIAN_POINT ( 'NONE',  ( 0.000000000000000000, 0.000000000000000000, 0.000000000000000000 ) ) ;
#31 = CC_DESIGN_DATE_AND_TIME_ASSIGNMENT ( #208, #38, ( #229 ) ) ;
#32 = CARTESIAN_POINT ( 'NONE',  ( 1.250000000000000000, 1.530808498934191571E-16, 200.0000000000000000 ) ) ;
#33 = APPROVAL_DATE_TIME ( #166, #254 ) ;
#34 = APPROVAL_PERSON_ORGANIZATION ( #9, #254, #95 ) ;
#35 = DIRECTION ( 'NONE',  ( 1.000000000000000000, 0.000000000000000000, 0.000000000000000000 ) ) ;
#36 = EDGE_LOOP ( 'NONE', ( #172, #59, #153, #234 ) ) ;
#37 = VERTEX_POINT ( 'NONE', #139 ) ;
#38 = DATE_TIME_ROLE ( 'creation_date' ) ;
#39 = ORIENTED_EDGE ( 'NONE', *, *, #64, .T. ) ;
#40 = LOCAL_TIME ( 13, 14, 51.00000000000000000, #127 ) ;
#41 = PERSON_AND_ORGANIZATION_ROLE ( 'classification_officer' ) ;
#42 = DIRECTION ( 'NONE',  ( 1.000000000000000000, 0.000000000000000000, -0.000000000000000000 ) ) ;
#43 = AXIS2_PLACEMENT_3D ( 'NONE', #78, #53, #151 ) ;
#44 = PLANE ( 'NONE',  #83 ) ;
#45 = LOCAL_TIME ( 13, 14, 51.00000000000000000, #152 ) ;
#46 = DIRECTION ( 'NONE',  ( -0.000000000000000000, -0.000000000000000000, -1.000000000000000000 ) ) ;
#47 = CARTESIAN_POINT ( 'NONE',  ( 2.500000000000000000, 3.061616997868383141E-16, 2.000000000000000000 ) ) ;
#48 = DATE_TIME_ROLE ( 'classification_date' ) ;
#49 = EDGE_CURVE ( 'NONE', #60, #195, #137, .T. ) ;
#50 = DIRECTION ( 'NONE',  ( 0.000000000000000000, 0.000000000000000000, 1.000000000000000000 ) ) ;
#51 = DIRECTION ( 'NONE',  ( -0.000000000000000000, -0.000000000000000000, -1.000000000000000000 ) ) ;
#52 = CALENDAR_DATE ( 2023, 12, 2 ) ;
#53 = DIRECTION ( 'NONE',  ( 0.000000000000000000, 0.000000000000000000, 1.000000000000000000 ) ) ;
#54 = ORIENTED_EDGE ( 'NONE', *, *, #175, .F. ) ;
#55 = VECTOR ( 'NONE', #227, 1000.000000000000000 ) ;
#56 = ORIENTED_EDGE ( 'NONE', *, *, #203, .F. ) ;
#57 = UNCERTAINTY_MEASURE_WITH_UNIT (LENGTH_MEASURE( 1.000000000000000082E-05 ), #5, 'distance_accuracy_value', 'NONE');
#58 = PERSON_AND_ORGANIZATION ( #86, #136 ) ;
#59 = ORIENTED_EDGE ( 'NONE', *, *, #64, .F. ) ;
#60 = VERTEX_POINT ( 'NONE', #32 ) ;
#61 = COORDINATED_UNIVERSAL_TIME_OFFSET ( 1, 0, .AHEAD. ) ;
#62 = ADVANCED_BREP_SHAPE_REPRESENTATION ( '19ca', ( #69, #156 ), #81 ) ;
#63 = CARTESIAN_POINT ( 'NONE',  ( 0.000000000000000000, 0.000000000000000000, 200.0000000000000000 ) ) ;
#64 = EDGE_CURVE ( 'NONE', #248, #141, #117, .T. ) ;
#65 = CIRCLE ( 'NONE', #89, 1.250000000000000000 ) ;
#66 = CARTESIAN_POINT ( 'NONE',  ( 0.000000000000000000, 0.000000000000000000, 2.000000000000000000 ) ) ;
#67 = CC_DESIGN_PERSON_AND_ORGANIZATION_ASSIGNMENT ( #123, #246, ( #230 ) ) ;
#68 = CYLINDRICAL_SURFACE ( 'NONE', #183, 2.500000000000000000 ) ;
#69 = MANIFOLD_SOLID_BREP ( 'Pøidat vysunutím3', #70 ) ;
#70 = CLOSED_SHELL ( 'NONE', ( #213, #131, #247, #232, #107, #187, #103 ) ) ;
#71 = PERSON_AND_ORGANIZATION_ROLE ( 'creator' ) ;
#72 = CARTESIAN_POINT ( 'NONE',  ( 0.000000000000000000, 0.000000000000000000, 2.000000000000000000 ) ) ;
#73 = DESIGN_CONTEXT ( 'detailed design', #7, 'design' ) ;
#74 = LOCAL_TIME ( 13, 14, 51.00000000000000000, #28 ) ;
#75 = PERSON_AND_ORGANIZATION ( #86, #136 ) ;
#76 = ORIENTED_EDGE ( 'NONE', *, *, #168, .F. ) ;
#77 = EDGE_CURVE ( 'NONE', #60, #155, #65, .T. ) ;
#78 = CARTESIAN_POINT ( 'NONE',  ( 0.000000000000000000, 0.000000000000000000, 0.000000000000000000 ) ) ;
#79 = ORIENTED_EDGE ( 'NONE', *, *, #239, .F. ) ;
#80 = VECTOR ( 'NONE', #112, 1000.000000000000000 ) ;
#81 =( GEOMETRIC_REPRESENTATION_CONTEXT ( 3 ) GLOBAL_UNCERTAINTY_ASSIGNED_CONTEXT ( ( #57 ) ) GLOBAL_UNIT_ASSIGNED_CONTEXT ( ( #5, #6, #201 ) ) REPRESENTATION_CONTEXT ( 'NONE', 'WORKASPACE' ) );
#82 = APPROVAL_ROLE ( '' ) ;
#83 = AXIS2_PLACEMENT_3D ( 'NONE', #66, #93, #161 ) ;
#84 = APPLICATION_CONTEXT ( 'configuration controlled 3d designs of mechanical parts and assemblies' ) ;
#85 = CARTESIAN_POINT ( 'NONE',  ( 0.000000000000000000, 0.000000000000000000, 200.0000000000000000 ) ) ;
#86 = PERSON ( 'NEURÈENÝ', 'NEURÈENÝ', 'NEURÈENÝ', ('NEURÈENÝ'), ('NEURÈENÝ'), ('NEURÈENÝ') ) ;
#87 = DIRECTION ( 'NONE',  ( 1.000000000000000000, 0.000000000000000000, 0.000000000000000000 ) ) ;
#88 = CC_DESIGN_PERSON_AND_ORGANIZATION_ASSIGNMENT ( #176, #2, ( #104 ) ) ;
#89 = AXIS2_PLACEMENT_3D ( 'NONE', #16, #198, #105 ) ;
#90 = DIRECTION ( 'NONE',  ( -1.000000000000000000, 0.000000000000000000, 0.000000000000000000 ) ) ;
#91 = AXIS2_PLACEMENT_3D ( 'NONE', #165, #241, #109 ) ;
#92 = DIRECTION ( 'NONE',  ( 0.000000000000000000, 0.000000000000000000, 1.000000000000000000 ) ) ;
#93 = DIRECTION ( 'NONE',  ( 0.000000000000000000, 0.000000000000000000, 1.000000000000000000 ) ) ;
#94 = DIRECTION ( 'NONE',  ( 1.000000000000000000, 0.000000000000000000, 0.000000000000000000 ) ) ;
#95 = APPROVAL_ROLE ( '' ) ;
#96 = CIRCLE ( 'NONE', #236, 1.250000000000000000 ) ;
#97 = EDGE_LOOP ( 'NONE', ( #251, #171 ) ) ;
#98 = DIRECTION ( 'NONE',  ( 1.000000000000000000, 0.000000000000000000, 0.000000000000000000 ) ) ;
#99 = ORIENTED_EDGE ( 'NONE', *, *, #77, .F. ) ;
#100 = COORDINATED_UNIVERSAL_TIME_OFFSET ( 1, 0, .AHEAD. ) ;
#101 = MECHANICAL_CONTEXT ( 'NONE', #84, 'mechanical' ) ;
#102 = ORIENTED_EDGE ( 'NONE', *, *, #196, .F. ) ;
#103 = ADVANCED_FACE ( 'NONE', ( #217 ), #26, .T. ) ;
#104 = PRODUCT ( '19ca', '19ca', '', ( #101 ) ) ;
#105 = DIRECTION ( 'NONE',  ( 1.000000000000000000, 0.000000000000000000, 0.000000000000000000 ) ) ;
#106 = AXIS2_PLACEMENT_3D ( 'NONE', #163, #51, #90 ) ;
#107 = ADVANCED_FACE ( 'NONE', ( #197 ), #177, .F. ) ;
#108 = CC_DESIGN_SECURITY_CLASSIFICATION ( #178, ( #230 ) ) ;
#109 = DIRECTION ( 'NONE',  ( 1.000000000000000000, 0.000000000000000000, 0.000000000000000000 ) ) ;
#110 = FACE_OUTER_BOUND ( 'NONE', #36, .T. ) ;
#111 = APPROVAL_STATUS ( 'not_yet_approved' ) ;
#112 = DIRECTION ( 'NONE',  ( -0.000000000000000000, -0.000000000000000000, -1.000000000000000000 ) ) ;
#113 = CC_DESIGN_APPROVAL ( #190, ( #230 ) ) ;
#114 = DIRECTION ( 'NONE',  ( -0.000000000000000000, -0.000000000000000000, -1.000000000000000000 ) ) ;
#115 = CALENDAR_DATE ( 2023, 12, 2 ) ;
#116 = VERTEX_POINT ( 'NONE', #167 ) ;
#117 = CIRCLE ( 'NONE', #210, 2.500000000000000000 ) ;
#118 = ORIENTED_EDGE ( 'NONE', *, *, #49, .F. ) ;
#119 = ORIENTED_EDGE ( 'NONE', *, *, #203, .T. ) ;
#120 = APPROVAL_STATUS ( 'not_yet_approved' ) ;
#121 = APPLICATION_PROTOCOL_DEFINITION ( 'international standard', 'config_control_design', 1994, #84 ) ;
#122 = VERTEX_POINT ( 'NONE', #244 ) ;
#123 = PERSON_AND_ORGANIZATION ( #86, #136 ) ;
#124 = EDGE_LOOP ( 'NONE', ( #99, #8, #149, #56 ) ) ;
#125 = APPROVAL_PERSON_ORGANIZATION ( #126, #4, #82 ) ;
#126 = PERSON_AND_ORGANIZATION ( #86, #136 ) ;
#127 = COORDINATED_UNIVERSAL_TIME_OFFSET ( 1, 0, .AHEAD. ) ;
#128 = CALENDAR_DATE ( 2023, 12, 2 ) ;
#129 = CC_DESIGN_PERSON_AND_ORGANIZATION_ASSIGNMENT ( #58, #140, ( #230 ) ) ;
#130 = EDGE_CURVE ( 'NONE', #37, #116, #228, .T. ) ;
#131 = ADVANCED_FACE ( 'NONE', ( #21 ), #223, .T. ) ;
#132 = CC_DESIGN_DATE_AND_TIME_ASSIGNMENT ( #220, #48, ( #178 ) ) ;
#133 = CARTESIAN_POINT ( 'NONE',  ( 2.500000000000000000, 3.061616997868383141E-16, 2.000000000000000000 ) ) ;
#134 = LINE ( 'NONE', #133, #80 ) ;
#135 = CARTESIAN_POINT ( 'NONE',  ( 0.000000000000000000, 0.000000000000000000, 2.000000000000000000 ) ) ;
#136 = ORGANIZATION ( 'NEURÈENÝ', 'NEURÈENÝ', '' ) ;
#137 = LINE ( 'NONE', #207, #55 ) ;
#138 = EDGE_LOOP ( 'NONE', ( #118, #54, #119, #170 ) ) ;
#139 = CARTESIAN_POINT ( 'NONE',  ( 2.500000000000000000, 3.061616997868383141E-16, 0.000000000000000000 ) ) ;
#140 = PERSON_AND_ORGANIZATION_ROLE ( 'creator' ) ;
#141 = VERTEX_POINT ( 'NONE', #47 ) ;
#142 = DIRECTION ( 'NONE',  ( 0.000000000000000000, 0.000000000000000000, 1.000000000000000000 ) ) ;
#143 = APPLICATION_PROTOCOL_DEFINITION ( 'international standard', 'config_control_design', 1994, #7 ) ;
#144 = CC_DESIGN_APPROVAL ( #254, ( #178 ) ) ;
#145 = CARTESIAN_POINT ( 'NONE',  ( 0.000000000000000000, 0.000000000000000000, 2.000000000000000000 ) ) ;
#146 = PERSON_AND_ORGANIZATION ( #86, #136 ) ;
#147 = DIRECTION ( 'NONE',  ( -1.000000000000000000, 0.000000000000000000, 0.000000000000000000 ) ) ;
#148 = AXIS2_PLACEMENT_3D ( 'NONE', #85, #114, #23 ) ;
#149 = ORIENTED_EDGE ( 'NONE', *, *, #239, .T. ) ;
#150 = DIRECTION ( 'NONE',  ( 0.000000000000000000, 0.000000000000000000, 1.000000000000000000 ) ) ;
#151 = DIRECTION ( 'NONE',  ( 1.000000000000000000, 0.000000000000000000, 0.000000000000000000 ) ) ;
#152 = COORDINATED_UNIVERSAL_TIME_OFFSET ( 1, 0, .AHEAD. ) ;
#153 = ORIENTED_EDGE ( 'NONE', *, *, #238, .T. ) ;
#154 = ORIENTED_EDGE ( 'NONE', *, *, #130, .T. ) ;
#155 = VERTEX_POINT ( 'NONE', #200 ) ;
#156 = AXIS2_PLACEMENT_3D ( 'NONE', #188, #150, #35 ) ;
#157 = AXIS2_PLACEMENT_3D ( 'NONE', #1, #92, #206 ) ;
#158 = VECTOR ( 'NONE', #180, 1000.000000000000000 ) ;
#159 = CARTESIAN_POINT ( 'NONE',  ( 1.250000000000000000, 1.530808498934191571E-16, 2.000000000000000000 ) ) ;
#160 = APPROVAL_DATE_TIME ( #179, #4 ) ;
#161 = DIRECTION ( 'NONE',  ( 1.000000000000000000, 0.000000000000000000, -0.000000000000000000 ) ) ;
#162 = EDGE_CURVE ( 'NONE', #141, #37, #134, .T. ) ;
#163 = CARTESIAN_POINT ( 'NONE',  ( 0.000000000000000000, 0.000000000000000000, 2.000000000000000000 ) ) ;
#164 = LINE ( 'NONE', #240, #158 ) ;
#165 = CARTESIAN_POINT ( 'NONE',  ( 0.000000000000000000, 0.000000000000000000, 2.000000000000000000 ) ) ;
#166 = DATE_AND_TIME ( #225, #74 ) ;
#167 = CARTESIAN_POINT ( 'NONE',  ( -2.500000000000000000, 0.000000000000000000, 0.000000000000000000 ) ) ;
#168 = EDGE_CURVE ( 'NONE', #141, #248, #199, .T. ) ;
#169 = EDGE_LOOP ( 'NONE', ( #209, #249 ) ) ;
#170 = ORIENTED_EDGE ( 'NONE', *, *, #196, .T. ) ;
#171 = ORIENTED_EDGE ( 'NONE', *, *, #77, .T. ) ;
#172 = ORIENTED_EDGE ( 'NONE', *, *, #162, .F. ) ;
#173 = DIRECTION ( 'NONE',  ( 1.000000000000000000, 0.000000000000000000, 0.000000000000000000 ) ) ;
#174 = CALENDAR_DATE ( 2023, 12, 2 ) ;
#175 = EDGE_CURVE ( 'NONE', #155, #60, #96, .T. ) ;
#176 = PERSON_AND_ORGANIZATION ( #86, #136 ) ;
#177 = PLANE ( 'NONE',  #157 ) ;
#178 = SECURITY_CLASSIFICATION ( '', '', #18 ) ;
#179 = DATE_AND_TIME ( #128, #19 ) ;
#180 = DIRECTION ( 'NONE',  ( -0.000000000000000000, -0.000000000000000000, -1.000000000000000000 ) ) ;
#181 = CYLINDRICAL_SURFACE ( 'NONE', #245, 1.250000000000000000 ) ;
#182 = CIRCLE ( 'NONE', #43, 2.500000000000000000 ) ;
#183 = AXIS2_PLACEMENT_3D ( 'NONE', #72, #46, #147 ) ;
#184 = CYLINDRICAL_SURFACE ( 'NONE', #148, 1.250000000000000000 ) ;
#185 = SHAPE_DEFINITION_REPRESENTATION ( #237, #62 ) ;
#186 = DIRECTION ( 'NONE',  ( 0.000000000000000000, 0.000000000000000000, 1.000000000000000000 ) ) ;
#187 = ADVANCED_FACE ( 'NONE', ( #204 ), #184, .T. ) ;
#188 = CARTESIAN_POINT ( 'NONE',  ( 0.000000000000000000, 0.000000000000000000, 0.000000000000000000 ) ) ;
#189 = ORIENTED_EDGE ( 'NONE', *, *, #162, .T. ) ;
#190 = APPROVAL ( #120, 'NEURÈENÝ' ) ;
#191 = DIRECTION ( 'NONE',  ( 0.000000000000000000, 0.000000000000000000, 1.000000000000000000 ) ) ;
#192 = APPROVAL_ROLE ( '' ) ;
#193 = EDGE_LOOP ( 'NONE', ( #39, #231 ) ) ;
#194 = AXIS2_PLACEMENT_3D ( 'NONE', #30, #142, #173 ) ;
#195 = VERTEX_POINT ( 'NONE', #159 ) ;
#196 = EDGE_CURVE ( 'NONE', #122, #195, #13, .T. ) ;
#197 = FACE_OUTER_BOUND ( 'NONE', #169, .T. ) ;
#198 = DIRECTION ( 'NONE',  ( 0.000000000000000000, 0.000000000000000000, 1.000000000000000000 ) ) ;
#199 = CIRCLE ( 'NONE', #214, 2.500000000000000000 ) ;
#200 = CARTESIAN_POINT ( 'NONE',  ( -1.250000000000000000, 0.000000000000000000, 200.0000000000000000 ) ) ;
#201 =( NAMED_UNIT ( * ) SI_UNIT ( $, .STERADIAN. ) SOLID_ANGLE_UNIT ( ) );
#202 = FACE_OUTER_BOUND ( 'NONE', #124, .T. ) ;
#203 = EDGE_CURVE ( 'NONE', #155, #122, #221, .T. ) ;
#204 = FACE_OUTER_BOUND ( 'NONE', #138, .T. ) ;
#205 = VECTOR ( 'NONE', #243, 1000.000000000000000 ) ;
#206 = DIRECTION ( 'NONE',  ( 1.000000000000000000, 0.000000000000000000, -0.000000000000000000 ) ) ;
#207 = CARTESIAN_POINT ( 'NONE',  ( 1.250000000000000000, 1.530808498934191571E-16, 200.0000000000000000 ) ) ;
#208 = DATE_AND_TIME ( #52, #45 ) ;
#209 = ORIENTED_EDGE ( 'NONE', *, *, #11, .F. ) ;
#210 = AXIS2_PLACEMENT_3D ( 'NONE', #15, #191, #98 ) ;
#211 = CIRCLE ( 'NONE', #91, 1.250000000000000000 ) ;
#212 = CC_DESIGN_PERSON_AND_ORGANIZATION_ASSIGNMENT ( #250, #71, ( #229 ) ) ;
#213 = ADVANCED_FACE ( 'NONE', ( #202 ), #181, .T. ) ;
#214 = AXIS2_PLACEMENT_3D ( 'NONE', #135, #29, #12 ) ;
#215 = LOCAL_TIME ( 13, 14, 51.00000000000000000, #100 ) ;
#216 = DIRECTION ( 'NONE',  ( 0.000000000000000000, 0.000000000000000000, 1.000000000000000000 ) ) ;
#217 = FACE_OUTER_BOUND ( 'NONE', #97, .T. ) ;
#218 = CARTESIAN_POINT ( 'NONE',  ( 0.000000000000000000, 0.000000000000000000, 200.0000000000000000 ) ) ;
#219 = DIRECTION ( 'NONE',  ( -1.000000000000000000, 0.000000000000000000, 0.000000000000000000 ) ) ;
#220 = DATE_AND_TIME ( #174, #40 ) ;
#221 = LINE ( 'NONE', #27, #205 ) ;
#222 = CARTESIAN_POINT ( 'NONE',  ( -2.500000000000000000, 0.000000000000000000, 2.000000000000000000 ) ) ;
#223 = CYLINDRICAL_SURFACE ( 'NONE', #106, 2.500000000000000000 ) ;
#224 = EDGE_LOOP ( 'NONE', ( #76, #189, #154, #235 ) ) ;
#225 = CALENDAR_DATE ( 2023, 12, 2 ) ;
#226 = CC_DESIGN_PERSON_AND_ORGANIZATION_ASSIGNMENT ( #75, #41, ( #178 ) ) ;
#227 = DIRECTION ( 'NONE',  ( -0.000000000000000000, -0.000000000000000000, -1.000000000000000000 ) ) ;
#228 = CIRCLE ( 'NONE', #194, 2.500000000000000000 ) ;
#229 = PRODUCT_DEFINITION ( 'NEZNÁMÝ', '', #230, #73 ) ;
#230 = PRODUCT_DEFINITION_FORMATION_WITH_SPECIFIED_SOURCE ( 'LIBOVOLNÝ', '', #104, .NOT_KNOWN. ) ;
#231 = ORIENTED_EDGE ( 'NONE', *, *, #168, .T. ) ;
#232 = ADVANCED_FACE ( 'NONE', ( #24, #22 ), #44, .T. ) ;
#233 = APPROVAL_DATE_TIME ( #252, #190 ) ;
#234 = ORIENTED_EDGE ( 'NONE', *, *, #11, .T. ) ;
#235 = ORIENTED_EDGE ( 'NONE', *, *, #238, .F. ) ;
#236 = AXIS2_PLACEMENT_3D ( 'NONE', #242, #50, #94 ) ;
#237 = PRODUCT_DEFINITION_SHAPE ( 'NONE', 'NONE',  #229 ) ;
#238 = EDGE_CURVE ( 'NONE', #248, #116, #164, .T. ) ;
#239 = EDGE_CURVE ( 'NONE', #195, #122, #211, .T. ) ;
#240 = CARTESIAN_POINT ( 'NONE',  ( -2.500000000000000000, 0.000000000000000000, 2.000000000000000000 ) ) ;
#241 = DIRECTION ( 'NONE',  ( 0.000000000000000000, 0.000000000000000000, 1.000000000000000000 ) ) ;
#242 = CARTESIAN_POINT ( 'NONE',  ( 0.000000000000000000, 0.000000000000000000, 200.0000000000000000 ) ) ;
#243 = DIRECTION ( 'NONE',  ( -0.000000000000000000, -0.000000000000000000, -1.000000000000000000 ) ) ;
#244 = CARTESIAN_POINT ( 'NONE',  ( -1.250000000000000000, 0.000000000000000000, 2.000000000000000000 ) ) ;
#245 = AXIS2_PLACEMENT_3D ( 'NONE', #218, #10, #219 ) ;
#246 = PERSON_AND_ORGANIZATION_ROLE ( 'design_supplier' ) ;
#247 = ADVANCED_FACE ( 'NONE', ( #110 ), #68, .T. ) ;
#248 = VERTEX_POINT ( 'NONE', #222 ) ;
#249 = ORIENTED_EDGE ( 'NONE', *, *, #130, .F. ) ;
#250 = PERSON_AND_ORGANIZATION ( #86, #136 ) ;
#251 = ORIENTED_EDGE ( 'NONE', *, *, #175, .T. ) ;
#252 = DATE_AND_TIME ( #115, #215 ) ;
#253 = CC_DESIGN_APPROVAL ( #4, ( #229 ) ) ;
#254 = APPROVAL ( #111, 'NEURÈENÝ' ) ;
#255 = APPROVAL_STATUS ( 'not_yet_approved' ) ;
ENDSEC;
END-ISO-10303-21;
