ISO-10303-21;
HEADER;
FILE_DESCRIPTION (( 'STEP AP203' ),
    '1' );
FILE_NAME ('5f68.STEP',
    '2023-02-12T11:29:40',
    ( '' ),
    ( '' ),
    'SwSTEP 2.0',
    'SolidWorks 2019',
    '' );
FILE_SCHEMA (( 'CONFIG_CONTROL_DESIGN' ));
ENDSEC;

DATA;
#1 = CC_DESIGN_PERSON_AND_ORGANIZATION_ASSIGNMENT ( #182, #100, ( #223 ) ) ;
#2 = ORIENTED_EDGE ( 'NONE', *, *, #59, .F. ) ;
#3 = CIRCLE ( 'NONE', #112, 6.000000000000000888 ) ;
#4 = DIRECTION ( 'NONE',  ( 0.000000000000000000, 0.000000000000000000, 1.000000000000000000 ) ) ;
#5 = DATE_TIME_ROLE ( 'creation_date' ) ;
#6 = CIRCLE ( 'NONE', #148, 3.500000000000000000 ) ;
#7 = EDGE_CURVE ( 'NONE', #78, #155, #231, .T. ) ;
#8 = COORDINATED_UNIVERSAL_TIME_OFFSET ( 1, 0, .AHEAD. ) ;
#9 = PERSON_AND_ORGANIZATION ( #131, #108 ) ;
#10 = DATE_AND_TIME ( #164, #16 ) ;
#11 = CC_DESIGN_APPROVAL ( #105, ( #85 ) ) ;
#12 = VECTOR ( 'NONE', #58, 1000.000000000000000 ) ;
#13 =( NAMED_UNIT ( * ) SI_UNIT ( $, .STERADIAN. ) SOLID_ANGLE_UNIT ( ) );
#14 = DIRECTION ( 'NONE',  ( 1.000000000000000000, 0.000000000000000000, 0.000000000000000000 ) ) ;
#15 = CC_DESIGN_PERSON_AND_ORGANIZATION_ASSIGNMENT ( #213, #60, ( #85 ) ) ;
#16 = LOCAL_TIME ( 12, 29, 40.00000000000000000, #103 ) ;
#17 = EDGE_LOOP ( 'NONE', ( #91, #144 ) ) ;
#18 = EDGE_CURVE ( 'NONE', #184, #78, #185, .T. ) ;
#19 = ORIENTED_EDGE ( 'NONE', *, *, #158, .F. ) ;
#20 = PERSON_AND_ORGANIZATION_ROLE ( 'creator' ) ;
#21 = ADVANCED_FACE ( 'NONE', ( #94 ), #25, .T. ) ;
#22 = FACE_OUTER_BOUND ( 'NONE', #150, .T. ) ;
#23 = CARTESIAN_POINT ( 'NONE',  ( 0.000000000000000000, 0.000000000000000000, 0.000000000000000000 ) ) ;
#24 = PERSON_AND_ORGANIZATION ( #131, #108 ) ;
#25 = PLANE ( 'NONE',  #86 ) ;
#26 = APPROVAL_ROLE ( '' ) ;
#27 = ORIENTED_EDGE ( 'NONE', *, *, #92, .F. ) ;
#28 = ADVANCED_FACE ( 'NONE', ( #122, #169 ), #206, .T. ) ;
#29 = DATE_AND_TIME ( #50, #96 ) ;
#30 = CARTESIAN_POINT ( 'NONE',  ( 0.000000000000000000, 0.000000000000000000, 5.000000000000000000 ) ) ;
#31 = CARTESIAN_POINT ( 'NONE',  ( 3.500000000000000000, 4.286263797015736595E-16, 5.000000000000000000 ) ) ;
#32 = DIRECTION ( 'NONE',  ( 0.000000000000000000, 0.000000000000000000, 1.000000000000000000 ) ) ;
#33 = DIRECTION ( 'NONE',  ( 1.000000000000000000, 0.000000000000000000, 0.000000000000000000 ) ) ;
#34 = CARTESIAN_POINT ( 'NONE',  ( 0.000000000000000000, 0.000000000000000000, 5.000000000000000000 ) ) ;
#35 = CARTESIAN_POINT ( 'NONE',  ( 0.000000000000000000, 0.000000000000000000, 5.000000000000000000 ) ) ;
#36 =( NAMED_UNIT ( * ) PLANE_ANGLE_UNIT ( ) SI_UNIT ( $, .RADIAN. ) );
#37 = CC_DESIGN_APPROVAL ( #166, ( #123 ) ) ;
#38 = DIRECTION ( 'NONE',  ( 1.000000000000000000, 0.000000000000000000, 0.000000000000000000 ) ) ;
#39 = CARTESIAN_POINT ( 'NONE',  ( 0.000000000000000000, 0.000000000000000000, 5.000000000000000000 ) ) ;
#40 = EDGE_CURVE ( 'NONE', #155, #139, #74, .T. ) ;
#41 = ORIENTED_EDGE ( 'NONE', *, *, #92, .T. ) ;
#42 = AXIS2_PLACEMENT_3D ( 'NONE', #34, #215, #104 ) ;
#43 = APPROVAL_ROLE ( '' ) ;
#44 = EDGE_LOOP ( 'NONE', ( #151, #171, #193, #235 ) ) ;
#45 = CALENDAR_DATE ( 2023, 12, 2 ) ;
#46 = DIRECTION ( 'NONE',  ( 1.000000000000000000, 0.000000000000000000, -0.000000000000000000 ) ) ;
#47 = APPROVAL_ROLE ( '' ) ;
#48 = CC_DESIGN_DATE_AND_TIME_ASSIGNMENT ( #29, #5, ( #123 ) ) ;
#49 = EDGE_LOOP ( 'NONE', ( #197, #41 ) ) ;
#50 = CALENDAR_DATE ( 2023, 12, 2 ) ;
#51 = DATE_AND_TIME ( #45, #229 ) ;
#52 = CYLINDRICAL_SURFACE ( 'NONE', #225, 6.000000000000000888 ) ;
#53 = EDGE_CURVE ( 'NONE', #177, #101, #252, .T. ) ;
#54 = CARTESIAN_POINT ( 'NONE',  ( -6.000000000000000888, 0.000000000000000000, 0.000000000000000000 ) ) ;
#55 = ADVANCED_FACE ( 'NONE', ( #165 ), #52, .T. ) ;
#56 = APPROVAL_PERSON_ORGANIZATION ( #120, #160, #26 ) ;
#57 = AXIS2_PLACEMENT_3D ( 'NONE', #214, #176, #152 ) ;
#58 = DIRECTION ( 'NONE',  ( -0.000000000000000000, -0.000000000000000000, -1.000000000000000000 ) ) ;
#59 = EDGE_CURVE ( 'NONE', #184, #139, #204, .T. ) ;
#60 = PERSON_AND_ORGANIZATION_ROLE ( 'classification_officer' ) ;
#61 = ORIENTED_EDGE ( 'NONE', *, *, #68, .F. ) ;
#62 = AXIS2_PLACEMENT_3D ( 'NONE', #132, #32, #33 ) ;
#63 = FACE_OUTER_BOUND ( 'NONE', #236, .T. ) ;
#64 = EDGE_CURVE ( 'NONE', #101, #177, #6, .T. ) ;
#65 = AXIS2_PLACEMENT_3D ( 'NONE', #130, #87, #212 ) ;
#66 =( GEOMETRIC_REPRESENTATION_CONTEXT ( 3 ) GLOBAL_UNCERTAINTY_ASSIGNED_CONTEXT ( ( #205 ) ) GLOBAL_UNIT_ASSIGNED_CONTEXT ( ( #221, #36, #13 ) ) REPRESENTATION_CONTEXT ( 'NONE', 'WORKASPACE' ) );
#67 = ORIENTED_EDGE ( 'NONE', *, *, #53, .T. ) ;
#68 = EDGE_CURVE ( 'NONE', #234, #177, #227, .T. ) ;
#69 = DIRECTION ( 'NONE',  ( -0.000000000000000000, -0.000000000000000000, -1.000000000000000000 ) ) ;
#70 = DIRECTION ( 'NONE',  ( 0.000000000000000000, 0.000000000000000000, 1.000000000000000000 ) ) ;
#71 = AXIS2_PLACEMENT_3D ( 'NONE', #30, #145, #106 ) ;
#72 = CARTESIAN_POINT ( 'NONE',  ( 0.000000000000000000, 0.000000000000000000, 160.0000000000000000 ) ) ;
#73 = DIRECTION ( 'NONE',  ( -0.000000000000000000, -0.000000000000000000, -1.000000000000000000 ) ) ;
#74 = CIRCLE ( 'NONE', #65, 6.000000000000000888 ) ;
#75 = VERTEX_POINT ( 'NONE', #167 ) ;
#76 = APPLICATION_PROTOCOL_DEFINITION ( 'international standard', 'config_control_design', 1994, #153 ) ;
#77 = PERSON_AND_ORGANIZATION ( #131, #108 ) ;
#78 = VERTEX_POINT ( 'NONE', #247 ) ;
#79 = CC_DESIGN_PERSON_AND_ORGANIZATION_ASSIGNMENT ( #77, #233, ( #141 ) ) ;
#80 = CYLINDRICAL_SURFACE ( 'NONE', #178, 3.500000000000000000 ) ;
#81 = DIRECTION ( 'NONE',  ( 1.000000000000000000, 0.000000000000000000, 0.000000000000000000 ) ) ;
#82 = CALENDAR_DATE ( 2023, 12, 2 ) ;
#83 = EDGE_CURVE ( 'NONE', #78, #184, #168, .T. ) ;
#84 = APPROVAL_DATE_TIME ( #51, #105 ) ;
#85 = SECURITY_CLASSIFICATION ( '', '', #137 ) ;
#86 = AXIS2_PLACEMENT_3D ( 'NONE', #242, #239, #46 ) ;
#87 = DIRECTION ( 'NONE',  ( 0.000000000000000000, 0.000000000000000000, 1.000000000000000000 ) ) ;
#88 = ADVANCED_BREP_SHAPE_REPRESENTATION ( '5f68', ( #138, #189 ), #66 ) ;
#89 = ORIENTED_EDGE ( 'NONE', *, *, #83, .F. ) ;
#90 = CC_DESIGN_SECURITY_CLASSIFICATION ( #85, ( #141 ) ) ;
#91 = ORIENTED_EDGE ( 'NONE', *, *, #40, .F. ) ;
#92 = EDGE_CURVE ( 'NONE', #75, #234, #210, .T. ) ;
#93 = COORDINATED_UNIVERSAL_TIME_OFFSET ( 1, 0, .AHEAD. ) ;
#94 = FACE_OUTER_BOUND ( 'NONE', #49, .T. ) ;
#95 = DIRECTION ( 'NONE',  ( 0.000000000000000000, 0.000000000000000000, 1.000000000000000000 ) ) ;
#96 = LOCAL_TIME ( 12, 29, 40.00000000000000000, #220 ) ;
#97 = CARTESIAN_POINT ( 'NONE',  ( 6.000000000000000888, 7.347880794884120722E-16, 5.000000000000000000 ) ) ;
#98 = COORDINATED_UNIVERSAL_TIME_OFFSET ( 1, 0, .AHEAD. ) ;
#99 = DIRECTION ( 'NONE',  ( -1.000000000000000000, 0.000000000000000000, 0.000000000000000000 ) ) ;
#100 = PERSON_AND_ORGANIZATION_ROLE ( 'design_owner' ) ;
#101 = VERTEX_POINT ( 'NONE', #31 ) ;
#102 = AXIS2_PLACEMENT_3D ( 'NONE', #72, #129, #228 ) ;
#103 = COORDINATED_UNIVERSAL_TIME_OFFSET ( 1, 0, .AHEAD. ) ;
#104 = DIRECTION ( 'NONE',  ( 1.000000000000000000, 0.000000000000000000, -0.000000000000000000 ) ) ;
#105 = APPROVAL ( #216, 'NEURÈENÝ' ) ;
#106 = DIRECTION ( 'NONE',  ( 1.000000000000000000, 0.000000000000000000, 0.000000000000000000 ) ) ;
#107 = MECHANICAL_CONTEXT ( 'NONE', #153, 'mechanical' ) ;
#108 = ORGANIZATION ( 'NEURÈENÝ', 'NEURÈENÝ', '' ) ;
#109 = DIRECTION ( 'NONE',  ( -0.000000000000000000, -0.000000000000000000, -1.000000000000000000 ) ) ;
#110 = DIRECTION ( 'NONE',  ( 1.000000000000000000, 0.000000000000000000, 0.000000000000000000 ) ) ;
#111 = DIRECTION ( 'NONE',  ( 0.000000000000000000, 0.000000000000000000, 1.000000000000000000 ) ) ;
#112 = AXIS2_PLACEMENT_3D ( 'NONE', #181, #4, #81 ) ;
#113 = ORIENTED_EDGE ( 'NONE', *, *, #18, .T. ) ;
#114 = CARTESIAN_POINT ( 'NONE',  ( -3.500000000000000000, 0.000000000000000000, 5.000000000000000000 ) ) ;
#115 = DATE_TIME_ROLE ( 'classification_date' ) ;
#116 = CYLINDRICAL_SURFACE ( 'NONE', #135, 6.000000000000000888 ) ;
#117 = VECTOR ( 'NONE', #109, 1000.000000000000000 ) ;
#118 = CLOSED_SHELL ( 'NONE', ( #232, #55, #243, #28, #173, #202, #21 ) ) ;
#119 = LINE ( 'NONE', #194, #117 ) ;
#120 = PERSON_AND_ORGANIZATION ( #131, #108 ) ;
#121 = CARTESIAN_POINT ( 'NONE',  ( 0.000000000000000000, 0.000000000000000000, 5.000000000000000000 ) ) ;
#122 = FACE_BOUND ( 'NONE', #136, .T. ) ;
#123 = PRODUCT_DEFINITION ( 'NEZNÁMÝ', '', #141, #179 ) ;
#124 = LOCAL_TIME ( 12, 29, 40.00000000000000000, #98 ) ;
#125 = APPROVAL_STATUS ( 'not_yet_approved' ) ;
#126 = ORIENTED_EDGE ( 'NONE', *, *, #7, .T. ) ;
#127 = CARTESIAN_POINT ( 'NONE',  ( 6.000000000000000888, 7.347880794884120722E-16, 0.000000000000000000 ) ) ;
#128 = CARTESIAN_POINT ( 'NONE',  ( 6.000000000000000888, 7.347880794884120722E-16, 5.000000000000000000 ) ) ;
#129 = DIRECTION ( 'NONE',  ( 0.000000000000000000, 0.000000000000000000, 1.000000000000000000 ) ) ;
#130 = CARTESIAN_POINT ( 'NONE',  ( 0.000000000000000000, 0.000000000000000000, 0.000000000000000000 ) ) ;
#131 = PERSON ( 'NEURÈENÝ', 'NEURÈENÝ', 'NEURÈENÝ', ('NEURÈENÝ'), ('NEURÈENÝ'), ('NEURÈENÝ') ) ;
#132 = CARTESIAN_POINT ( 'NONE',  ( 0.000000000000000000, 0.000000000000000000, 160.0000000000000000 ) ) ;
#133 = AXIS2_PLACEMENT_3D ( 'NONE', #143, #73, #156 ) ;
#134 = DIRECTION ( 'NONE',  ( -1.000000000000000000, 0.000000000000000000, 0.000000000000000000 ) ) ;
#135 = AXIS2_PLACEMENT_3D ( 'NONE', #35, #190, #99 ) ;
#136 = EDGE_LOOP ( 'NONE', ( #253, #175 ) ) ;
#137 = SECURITY_CLASSIFICATION_LEVEL ( 'unclassified' ) ;
#138 = MANIFOLD_SOLID_BREP ( 'Pøidat vysunutím3', #118 ) ;
#139 = VERTEX_POINT ( 'NONE', #127 ) ;
#140 = PERSON_AND_ORGANIZATION ( #131, #108 ) ;
#141 = PRODUCT_DEFINITION_FORMATION_WITH_SPECIFIED_SOURCE ( 'LIBOVOLNÝ', '', #223, .NOT_KNOWN. ) ;
#142 = AXIS2_PLACEMENT_3D ( 'NONE', #121, #226, #14 ) ;
#143 = CARTESIAN_POINT ( 'NONE',  ( 0.000000000000000000, 0.000000000000000000, 160.0000000000000000 ) ) ;
#144 = ORIENTED_EDGE ( 'NONE', *, *, #187, .F. ) ;
#145 = DIRECTION ( 'NONE',  ( 0.000000000000000000, 0.000000000000000000, 1.000000000000000000 ) ) ;
#146 = PERSON_AND_ORGANIZATION_ROLE ( 'creator' ) ;
#147 = DIRECTION ( 'NONE',  ( 1.000000000000000000, 0.000000000000000000, 0.000000000000000000 ) ) ;
#148 = AXIS2_PLACEMENT_3D ( 'NONE', #188, #70, #147 ) ;
#149 = ORIENTED_EDGE ( 'NONE', *, *, #83, .T. ) ;
#150 = EDGE_LOOP ( 'NONE', ( #209, #19, #219, #67 ) ) ;
#151 = ORIENTED_EDGE ( 'NONE', *, *, #18, .F. ) ;
#152 = DIRECTION ( 'NONE',  ( 1.000000000000000000, 0.000000000000000000, -0.000000000000000000 ) ) ;
#153 = APPLICATION_CONTEXT ( 'configuration controlled 3d designs of mechanical parts and assemblies' ) ;
#154 = APPROVAL_PERSON_ORGANIZATION ( #24, #105, #43 ) ;
#155 = VERTEX_POINT ( 'NONE', #54 ) ;
#156 = DIRECTION ( 'NONE',  ( -1.000000000000000000, 0.000000000000000000, 0.000000000000000000 ) ) ;
#157 = DIRECTION ( 'NONE',  ( -0.000000000000000000, -0.000000000000000000, -1.000000000000000000 ) ) ;
#158 = EDGE_CURVE ( 'NONE', #234, #75, #246, .T. ) ;
#159 = SHAPE_DEFINITION_REPRESENTATION ( #203, #88 ) ;
#160 = APPROVAL ( #196, 'NEURÈENÝ' ) ;
#161 = CARTESIAN_POINT ( 'NONE',  ( -3.500000000000000000, 0.000000000000000000, 160.0000000000000000 ) ) ;
#162 = APPROVAL_DATE_TIME ( #10, #166 ) ;
#163 = APPROVAL_PERSON_ORGANIZATION ( #9, #166, #47 ) ;
#164 = CALENDAR_DATE ( 2023, 12, 2 ) ;
#165 = FACE_OUTER_BOUND ( 'NONE', #44, .T. ) ;
#166 = APPROVAL ( #125, 'NEURÈENÝ' ) ;
#167 = CARTESIAN_POINT ( 'NONE',  ( 3.500000000000000000, 4.286263797015736595E-16, 160.0000000000000000 ) ) ;
#168 = CIRCLE ( 'NONE', #71, 6.000000000000000888 ) ;
#169 = FACE_OUTER_BOUND ( 'NONE', #192, .T. ) ;
#170 = PLANE ( 'NONE',  #57 ) ;
#171 = ORIENTED_EDGE ( 'NONE', *, *, #59, .T. ) ;
#172 = CARTESIAN_POINT ( 'NONE',  ( -6.000000000000000888, 0.000000000000000000, 5.000000000000000000 ) ) ;
#173 = ADVANCED_FACE ( 'NONE', ( #183 ), #170, .F. ) ;
#174 = CALENDAR_DATE ( 2023, 12, 2 ) ;
#175 = ORIENTED_EDGE ( 'NONE', *, *, #64, .F. ) ;
#176 = DIRECTION ( 'NONE',  ( 0.000000000000000000, 0.000000000000000000, 1.000000000000000000 ) ) ;
#177 = VERTEX_POINT ( 'NONE', #114 ) ;
#178 = AXIS2_PLACEMENT_3D ( 'NONE', #250, #157, #134 ) ;
#179 = DESIGN_CONTEXT ( 'detailed design', #186, 'design' ) ;
#180 = EDGE_CURVE ( 'NONE', #75, #101, #119, .T. ) ;
#181 = CARTESIAN_POINT ( 'NONE',  ( 0.000000000000000000, 0.000000000000000000, 0.000000000000000000 ) ) ;
#182 = PERSON_AND_ORGANIZATION ( #131, #108 ) ;
#183 = FACE_OUTER_BOUND ( 'NONE', #17, .T. ) ;
#184 = VERTEX_POINT ( 'NONE', #97 ) ;
#185 = CIRCLE ( 'NONE', #245, 6.000000000000000888 ) ;
#186 = APPLICATION_CONTEXT ( 'configuration controlled 3d designs of mechanical parts and assemblies' ) ;
#187 = EDGE_CURVE ( 'NONE', #139, #155, #3, .T. ) ;
#188 = CARTESIAN_POINT ( 'NONE',  ( 0.000000000000000000, 0.000000000000000000, 5.000000000000000000 ) ) ;
#189 = AXIS2_PLACEMENT_3D ( 'NONE', #23, #95, #110 ) ;
#190 = DIRECTION ( 'NONE',  ( -0.000000000000000000, -0.000000000000000000, -1.000000000000000000 ) ) ;
#191 = ORIENTED_EDGE ( 'NONE', *, *, #64, .T. ) ;
#192 = EDGE_LOOP ( 'NONE', ( #149, #113 ) ) ;
#193 = ORIENTED_EDGE ( 'NONE', *, *, #187, .T. ) ;
#194 = CARTESIAN_POINT ( 'NONE',  ( 3.500000000000000000, 4.286263797015736595E-16, 160.0000000000000000 ) ) ;
#195 = CC_DESIGN_APPROVAL ( #160, ( #141 ) ) ;
#196 = APPROVAL_STATUS ( 'not_yet_approved' ) ;
#197 = ORIENTED_EDGE ( 'NONE', *, *, #158, .T. ) ;
#198 = VECTOR ( 'NONE', #244, 1000.000000000000000 ) ;
#199 = DIRECTION ( 'NONE',  ( -0.000000000000000000, -0.000000000000000000, -1.000000000000000000 ) ) ;
#200 = VECTOR ( 'NONE', #199, 1000.000000000000000 ) ;
#201 = LOCAL_TIME ( 12, 29, 40.00000000000000000, #93 ) ;
#202 = ADVANCED_FACE ( 'NONE', ( #22 ), #80, .T. ) ;
#203 = PRODUCT_DEFINITION_SHAPE ( 'NONE', 'NONE',  #123 ) ;
#204 = LINE ( 'NONE', #128, #200 ) ;
#205 = UNCERTAINTY_MEASURE_WITH_UNIT (LENGTH_MEASURE( 1.000000000000000082E-05 ), #221, 'distance_accuracy_value', 'NONE');
#206 = PLANE ( 'NONE',  #42 ) ;
#207 = CC_DESIGN_PERSON_AND_ORGANIZATION_ASSIGNMENT ( #140, #146, ( #123 ) ) ;
#208 = CYLINDRICAL_SURFACE ( 'NONE', #133, 3.500000000000000000 ) ;
#209 = ORIENTED_EDGE ( 'NONE', *, *, #180, .F. ) ;
#210 = CIRCLE ( 'NONE', #102, 3.500000000000000000 ) ;
#211 = ORIENTED_EDGE ( 'NONE', *, *, #40, .T. ) ;
#212 = DIRECTION ( 'NONE',  ( 1.000000000000000000, 0.000000000000000000, 0.000000000000000000 ) ) ;
#213 = PERSON_AND_ORGANIZATION ( #131, #108 ) ;
#214 = CARTESIAN_POINT ( 'NONE',  ( 0.000000000000000000, 0.000000000000000000, 0.000000000000000000 ) ) ;
#215 = DIRECTION ( 'NONE',  ( 0.000000000000000000, 0.000000000000000000, 1.000000000000000000 ) ) ;
#216 = APPROVAL_STATUS ( 'not_yet_approved' ) ;
#217 = CC_DESIGN_DATE_AND_TIME_ASSIGNMENT ( #255, #115, ( #85 ) ) ;
#218 = APPLICATION_PROTOCOL_DEFINITION ( 'international standard', 'config_control_design', 1994, #186 ) ;
#219 = ORIENTED_EDGE ( 'NONE', *, *, #68, .T. ) ;
#220 = COORDINATED_UNIVERSAL_TIME_OFFSET ( 1, 0, .AHEAD. ) ;
#221 =( LENGTH_UNIT ( ) NAMED_UNIT ( * ) SI_UNIT ( .MILLI., .METRE. ) );
#222 = DIRECTION ( 'NONE',  ( -1.000000000000000000, 0.000000000000000000, 0.000000000000000000 ) ) ;
#223 = PRODUCT ( '5f68', '5f68', '', ( #107 ) ) ;
#224 = PRODUCT_RELATED_PRODUCT_CATEGORY ( 'detail', '', ( #223 ) ) ;
#225 = AXIS2_PLACEMENT_3D ( 'NONE', #248, #69, #222 ) ;
#226 = DIRECTION ( 'NONE',  ( 0.000000000000000000, 0.000000000000000000, 1.000000000000000000 ) ) ;
#227 = LINE ( 'NONE', #161, #198 ) ;
#228 = DIRECTION ( 'NONE',  ( 1.000000000000000000, 0.000000000000000000, 0.000000000000000000 ) ) ;
#229 = LOCAL_TIME ( 12, 29, 40.00000000000000000, #8 ) ;
#230 = EDGE_LOOP ( 'NONE', ( #27, #251, #191, #61 ) ) ;
#231 = LINE ( 'NONE', #172, #12 ) ;
#232 = ADVANCED_FACE ( 'NONE', ( #240 ), #208, .T. ) ;
#233 = PERSON_AND_ORGANIZATION_ROLE ( 'design_supplier' ) ;
#234 = VERTEX_POINT ( 'NONE', #237 ) ;
#235 = ORIENTED_EDGE ( 'NONE', *, *, #7, .F. ) ;
#236 = EDGE_LOOP ( 'NONE', ( #2, #89, #126, #211 ) ) ;
#237 = CARTESIAN_POINT ( 'NONE',  ( -3.500000000000000000, 0.000000000000000000, 160.0000000000000000 ) ) ;
#238 = APPROVAL_DATE_TIME ( #241, #160 ) ;
#239 = DIRECTION ( 'NONE',  ( 0.000000000000000000, 0.000000000000000000, 1.000000000000000000 ) ) ;
#240 = FACE_OUTER_BOUND ( 'NONE', #230, .T. ) ;
#241 = DATE_AND_TIME ( #82, #124 ) ;
#242 = CARTESIAN_POINT ( 'NONE',  ( 0.000000000000000000, 0.000000000000000000, 160.0000000000000000 ) ) ;
#243 = ADVANCED_FACE ( 'NONE', ( #63 ), #116, .T. ) ;
#244 = DIRECTION ( 'NONE',  ( -0.000000000000000000, -0.000000000000000000, -1.000000000000000000 ) ) ;
#245 = AXIS2_PLACEMENT_3D ( 'NONE', #39, #111, #38 ) ;
#246 = CIRCLE ( 'NONE', #62, 3.500000000000000000 ) ;
#247 = CARTESIAN_POINT ( 'NONE',  ( -6.000000000000000888, 0.000000000000000000, 5.000000000000000000 ) ) ;
#248 = CARTESIAN_POINT ( 'NONE',  ( 0.000000000000000000, 0.000000000000000000, 5.000000000000000000 ) ) ;
#249 = CC_DESIGN_PERSON_AND_ORGANIZATION_ASSIGNMENT ( #254, #20, ( #141 ) ) ;
#250 = CARTESIAN_POINT ( 'NONE',  ( 0.000000000000000000, 0.000000000000000000, 160.0000000000000000 ) ) ;
#251 = ORIENTED_EDGE ( 'NONE', *, *, #180, .T. ) ;
#252 = CIRCLE ( 'NONE', #142, 3.500000000000000000 ) ;
#253 = ORIENTED_EDGE ( 'NONE', *, *, #53, .F. ) ;
#254 = PERSON_AND_ORGANIZATION ( #131, #108 ) ;
#255 = DATE_AND_TIME ( #174, #201 ) ;
ENDSEC;
END-ISO-10303-21;
