ISO-10303-21;
HEADER;
FILE_DESCRIPTION (( 'STEP AP203' ),
    '1' );
FILE_NAME ('6f39.STEP',
    '2023-02-12T10:38:17',
    ( '' ),
    ( '' ),
    'SwSTEP 2.0',
    'SolidWorks 2019',
    '' );
FILE_SCHEMA (( 'CONFIG_CONTROL_DESIGN' ));
ENDSEC;

DATA;
#1 = DIRECTION ( 'NONE',  ( 1.000000000000000000, 0.000000000000000000, -0.000000000000000000 ) ) ;
#2 = DIRECTION ( 'NONE',  ( -0.000000000000000000, -0.000000000000000000, -1.000000000000000000 ) ) ;
#3 = AXIS2_PLACEMENT_3D ( 'NONE', #93, #121, #52 ) ;
#4 = ADVANCED_FACE ( 'NONE', ( #131 ), #28, .F. ) ;
#5 = ORIENTED_EDGE ( 'NONE', *, *, #97, .T. ) ;
#6 = AXIS2_PLACEMENT_3D ( 'NONE', #247, #137, #224 ) ;
#7 = APPLICATION_PROTOCOL_DEFINITION ( 'international standard', 'config_control_design', 1994, #20 ) ;
#8 = ORIENTED_EDGE ( 'NONE', *, *, #64, .T. ) ;
#9 = APPROVAL_ROLE ( '' ) ;
#10 = ORIENTED_EDGE ( 'NONE', *, *, #128, .T. ) ;
#11 = APPROVAL_DATE_TIME ( #163, #223 ) ;
#12 = VECTOR ( 'NONE', #168, 1000.000000000000000 ) ;
#13 = CALENDAR_DATE ( 2023, 12, 2 ) ;
#14 = DIRECTION ( 'NONE',  ( 1.000000000000000000, 0.000000000000000000, 0.000000000000000000 ) ) ;
#15 = EDGE_CURVE ( 'NONE', #195, #177, #38, .T. ) ;
#16 = DIRECTION ( 'NONE',  ( 0.000000000000000000, 0.000000000000000000, 1.000000000000000000 ) ) ;
#17 = UNCERTAINTY_MEASURE_WITH_UNIT (LENGTH_MEASURE( 1.000000000000000082E-05 ), #43, 'distance_accuracy_value', 'NONE');
#18 = CIRCLE ( 'NONE', #50, 9.000000000000001776 ) ;
#19 = CARTESIAN_POINT ( 'NONE',  ( 0.000000000000000000, 0.000000000000000000, 7.000000000000000000 ) ) ;
#20 = APPLICATION_CONTEXT ( 'configuration controlled 3d designs of mechanical parts and assemblies' ) ;
#21 = CARTESIAN_POINT ( 'NONE',  ( 0.000000000000000000, 0.000000000000000000, 160.0000000000000000 ) ) ;
#22 = MANIFOLD_SOLID_BREP ( 'Pøidat vysunutím3', #96 ) ;
#23 = APPROVAL ( #176, 'NEURÈENÝ' ) ;
#24 = DIRECTION ( 'NONE',  ( -1.000000000000000000, 0.000000000000000000, 0.000000000000000000 ) ) ;
#25 = ORIENTED_EDGE ( 'NONE', *, *, #34, .F. ) ;
#26 = PRODUCT_RELATED_PRODUCT_CATEGORY ( 'detail', '', ( #154 ) ) ;
#27 =( NAMED_UNIT ( * ) SI_UNIT ( $, .STERADIAN. ) SOLID_ANGLE_UNIT ( ) );
#28 = PLANE ( 'NONE',  #239 ) ;
#29 = VERTEX_POINT ( 'NONE', #255 ) ;
#30 = CIRCLE ( 'NONE', #59, 12.00000000000000178 ) ;
#31 = COORDINATED_UNIVERSAL_TIME_OFFSET ( 1, 0, .AHEAD. ) ;
#32 = ORIENTED_EDGE ( 'NONE', *, *, #228, .F. ) ;
#33 = CALENDAR_DATE ( 2023, 12, 2 ) ;
#34 = EDGE_CURVE ( 'NONE', #114, #44, #18, .T. ) ;
#35 = CARTESIAN_POINT ( 'NONE',  ( 0.000000000000000000, 0.000000000000000000, 0.000000000000000000 ) ) ;
#36 = APPLICATION_CONTEXT ( 'configuration controlled 3d designs of mechanical parts and assemblies' ) ;
#37 = VECTOR ( 'NONE', #2, 1000.000000000000000 ) ;
#38 = LINE ( 'NONE', #70, #122 ) ;
#39 = CC_DESIGN_PERSON_AND_ORGANIZATION_ASSIGNMENT ( #108, #107, ( #154 ) ) ;
#40 = PLANE ( 'NONE',  #226 ) ;
#41 = CC_DESIGN_DATE_AND_TIME_ASSIGNMENT ( #105, #246, ( #187 ) ) ;
#42 = CARTESIAN_POINT ( 'NONE',  ( 9.000000000000001776, 1.102182119232617911E-15, 160.0000000000000000 ) ) ;
#43 =( LENGTH_UNIT ( ) NAMED_UNIT ( * ) SI_UNIT ( .MILLI., .METRE. ) );
#44 = VERTEX_POINT ( 'NONE', #180 ) ;
#45 = EDGE_CURVE ( 'NONE', #177, #243, #165, .T. ) ;
#46 = ORIENTED_EDGE ( 'NONE', *, *, #202, .F. ) ;
#47 = COORDINATED_UNIVERSAL_TIME_OFFSET ( 1, 0, .AHEAD. ) ;
#48 = FACE_OUTER_BOUND ( 'NONE', #151, .T. ) ;
#49 = EDGE_CURVE ( 'NONE', #87, #195, #182, .T. ) ;
#50 = AXIS2_PLACEMENT_3D ( 'NONE', #179, #75, #14 ) ;
#51 = LOCAL_TIME ( 11, 38, 17.00000000000000000, #31 ) ;
#52 = DIRECTION ( 'NONE',  ( -1.000000000000000000, 0.000000000000000000, 0.000000000000000000 ) ) ;
#53 = CALENDAR_DATE ( 2023, 12, 2 ) ;
#54 = PERSON_AND_ORGANIZATION ( #101, #99 ) ;
#55 = APPROVAL_PERSON_ORGANIZATION ( #86, #23, #9 ) ;
#56 = DIRECTION ( 'NONE',  ( -0.000000000000000000, -0.000000000000000000, -1.000000000000000000 ) ) ;
#57 = CARTESIAN_POINT ( 'NONE',  ( -12.00000000000000178, 0.000000000000000000, 7.000000000000000000 ) ) ;
#58 = DIRECTION ( 'NONE',  ( 0.000000000000000000, 0.000000000000000000, 1.000000000000000000 ) ) ;
#59 = AXIS2_PLACEMENT_3D ( 'NONE', #111, #58, #209 ) ;
#60 = CARTESIAN_POINT ( 'NONE',  ( 0.000000000000000000, 0.000000000000000000, 160.0000000000000000 ) ) ;
#61 = EDGE_LOOP ( 'NONE', ( #153, #46 ) ) ;
#62 = ORIENTED_EDGE ( 'NONE', *, *, #34, .T. ) ;
#63 = ORIENTED_EDGE ( 'NONE', *, *, #134, .T. ) ;
#64 = EDGE_CURVE ( 'NONE', #29, #106, #217, .T. ) ;
#65 = AXIS2_PLACEMENT_3D ( 'NONE', #144, #82, #24 ) ;
#66 = CALENDAR_DATE ( 2023, 12, 2 ) ;
#67 = DATE_AND_TIME ( #120, #237 ) ;
#68 = ADVANCED_FACE ( 'NONE', ( #225, #199 ), #160, .T. ) ;
#69 = COORDINATED_UNIVERSAL_TIME_OFFSET ( 1, 0, .AHEAD. ) ;
#70 = CARTESIAN_POINT ( 'NONE',  ( -12.00000000000000178, 0.000000000000000000, 7.000000000000000000 ) ) ;
#71 = DATE_TIME_ROLE ( 'creation_date' ) ;
#72 = CARTESIAN_POINT ( 'NONE',  ( 9.000000000000001776, 1.102182119232617911E-15, 160.0000000000000000 ) ) ;
#73 = DESIGN_CONTEXT ( 'detailed design', #36, 'design' ) ;
#74 = PERSON_AND_ORGANIZATION ( #101, #99 ) ;
#75 = DIRECTION ( 'NONE',  ( 0.000000000000000000, 0.000000000000000000, 1.000000000000000000 ) ) ;
#76 = CARTESIAN_POINT ( 'NONE',  ( -12.00000000000000178, 0.000000000000000000, 0.000000000000000000 ) ) ;
#77 = LINE ( 'NONE', #234, #171 ) ;
#78 = CARTESIAN_POINT ( 'NONE',  ( 12.00000000000000178, 1.469576158976824144E-15, 0.000000000000000000 ) ) ;
#79 = CYLINDRICAL_SURFACE ( 'NONE', #133, 9.000000000000001776 ) ;
#80 = ORIENTED_EDGE ( 'NONE', *, *, #45, .T. ) ;
#81 = AXIS2_PLACEMENT_3D ( 'NONE', #19, #56, #232 ) ;
#82 = DIRECTION ( 'NONE',  ( -0.000000000000000000, -0.000000000000000000, -1.000000000000000000 ) ) ;
#83 = ADVANCED_FACE ( 'NONE', ( #48 ), #181, .T. ) ;
#84 = ORIENTED_EDGE ( 'NONE', *, *, #156, .T. ) ;
#85 = ORIENTED_EDGE ( 'NONE', *, *, #49, .F. ) ;
#86 = PERSON_AND_ORGANIZATION ( #101, #99 ) ;
#87 = VERTEX_POINT ( 'NONE', #123 ) ;
#88 = AXIS2_PLACEMENT_3D ( 'NONE', #200, #16, #164 ) ;
#89 = APPROVAL_STATUS ( 'not_yet_approved' ) ;
#90 = MECHANICAL_CONTEXT ( 'NONE', #20, 'mechanical' ) ;
#91 = DIRECTION ( 'NONE',  ( 1.000000000000000000, 0.000000000000000000, 0.000000000000000000 ) ) ;
#92 = DIRECTION ( 'NONE',  ( 0.000000000000000000, 0.000000000000000000, 1.000000000000000000 ) ) ;
#93 = CARTESIAN_POINT ( 'NONE',  ( 0.000000000000000000, 0.000000000000000000, 7.000000000000000000 ) ) ;
#94 = PERSON_AND_ORGANIZATION ( #101, #99 ) ;
#95 = DIRECTION ( 'NONE',  ( 1.000000000000000000, 0.000000000000000000, -0.000000000000000000 ) ) ;
#96 = CLOSED_SHELL ( 'NONE', ( #252, #83, #183, #68, #4, #167, #241 ) ) ;
#97 = EDGE_CURVE ( 'NONE', #195, #87, #208, .T. ) ;
#98 = LINE ( 'NONE', #188, #12 ) ;
#99 = ORGANIZATION ( 'NEURÈENÝ', 'NEURÈENÝ', '' ) ;
#100 = PRODUCT_DEFINITION_FORMATION_WITH_SPECIFIED_SOURCE ( 'LIBOVOLNÝ', '', #154, .NOT_KNOWN. ) ;
#101 = PERSON ( 'NEURÈENÝ', 'NEURÈENÝ', 'NEURÈENÝ', ('NEURÈENÝ'), ('NEURÈENÝ'), ('NEURÈENÝ') ) ;
#102 = DIRECTION ( 'NONE',  ( 0.000000000000000000, 0.000000000000000000, 1.000000000000000000 ) ) ;
#103 = AXIS2_PLACEMENT_3D ( 'NONE', #143, #230, #162 ) ;
#104 = CIRCLE ( 'NONE', #240, 9.000000000000001776 ) ;
#105 = DATE_AND_TIME ( #33, #51 ) ;
#106 = VERTEX_POINT ( 'NONE', #251 ) ;
#107 = PERSON_AND_ORGANIZATION_ROLE ( 'design_owner' ) ;
#108 = PERSON_AND_ORGANIZATION ( #101, #99 ) ;
#109 = CC_DESIGN_APPROVAL ( #206, ( #100 ) ) ;
#110 = DIRECTION ( 'NONE',  ( 0.000000000000000000, 0.000000000000000000, 1.000000000000000000 ) ) ;
#111 = CARTESIAN_POINT ( 'NONE',  ( 0.000000000000000000, 0.000000000000000000, 0.000000000000000000 ) ) ;
#112 = EDGE_LOOP ( 'NONE', ( #155, #62 ) ) ;
#113 = LOCAL_TIME ( 11, 38, 17.00000000000000000, #222 ) ;
#114 = VERTEX_POINT ( 'NONE', #72 ) ;
#115 = ORIENTED_EDGE ( 'NONE', *, *, #134, .F. ) ;
#116 = CC_DESIGN_SECURITY_CLASSIFICATION ( #187, ( #100 ) ) ;
#117 = ORIENTED_EDGE ( 'NONE', *, *, #15, .F. ) ;
#118 = PERSON_AND_ORGANIZATION_ROLE ( 'classification_officer' ) ;
#119 = DIRECTION ( 'NONE',  ( 1.000000000000000000, 0.000000000000000000, 0.000000000000000000 ) ) ;
#120 = CALENDAR_DATE ( 2023, 12, 2 ) ;
#121 = DIRECTION ( 'NONE',  ( -0.000000000000000000, -0.000000000000000000, -1.000000000000000000 ) ) ;
#122 = VECTOR ( 'NONE', #158, 1000.000000000000000 ) ;
#123 = CARTESIAN_POINT ( 'NONE',  ( 12.00000000000000178, 1.469576158976824144E-15, 7.000000000000000000 ) ) ;
#124 = APPROVAL_ROLE ( '' ) ;
#125 = FACE_OUTER_BOUND ( 'NONE', #112, .T. ) ;
#126 = DIRECTION ( 'NONE',  ( 0.000000000000000000, 0.000000000000000000, 1.000000000000000000 ) ) ;
#127 =( NAMED_UNIT ( * ) PLANE_ANGLE_UNIT ( ) SI_UNIT ( $, .RADIAN. ) );
#128 = EDGE_CURVE ( 'NONE', #114, #106, #141, .T. ) ;
#129 = ORIENTED_EDGE ( 'NONE', *, *, #97, .F. ) ;
#130 = ORIENTED_EDGE ( 'NONE', *, *, #202, .T. ) ;
#131 = FACE_OUTER_BOUND ( 'NONE', #61, .T. ) ;
#132 = ORIENTED_EDGE ( 'NONE', *, *, #15, .T. ) ;
#133 = AXIS2_PLACEMENT_3D ( 'NONE', #235, #146, #170 ) ;
#134 = EDGE_CURVE ( 'NONE', #44, #29, #77, .T. ) ;
#135 = DIRECTION ( 'NONE',  ( 0.000000000000000000, 0.000000000000000000, 1.000000000000000000 ) ) ;
#136 = APPROVAL_STATUS ( 'not_yet_approved' ) ;
#137 = DIRECTION ( 'NONE',  ( 0.000000000000000000, 0.000000000000000000, 1.000000000000000000 ) ) ;
#138 = APPROVAL_DATE_TIME ( #67, #23 ) ;
#139 = CARTESIAN_POINT ( 'NONE',  ( 0.000000000000000000, 0.000000000000000000, 0.000000000000000000 ) ) ;
#140 = DIRECTION ( 'NONE',  ( 1.000000000000000000, 0.000000000000000000, 0.000000000000000000 ) ) ;
#141 = LINE ( 'NONE', #42, #37 ) ;
#142 = PERSON_AND_ORGANIZATION ( #101, #99 ) ;
#143 = CARTESIAN_POINT ( 'NONE',  ( 0.000000000000000000, 0.000000000000000000, 7.000000000000000000 ) ) ;
#144 = CARTESIAN_POINT ( 'NONE',  ( 0.000000000000000000, 0.000000000000000000, 160.0000000000000000 ) ) ;
#145 = CC_DESIGN_APPROVAL ( #23, ( #187 ) ) ;
#146 = DIRECTION ( 'NONE',  ( -0.000000000000000000, -0.000000000000000000, -1.000000000000000000 ) ) ;
#147 = DIRECTION ( 'NONE',  ( -0.000000000000000000, -0.000000000000000000, -1.000000000000000000 ) ) ;
#148 = PRODUCT_DEFINITION ( 'NEZNÁMÝ', '', #100, #73 ) ;
#149 = FACE_OUTER_BOUND ( 'NONE', #150, .T. ) ;
#150 = EDGE_LOOP ( 'NONE', ( #32, #129, #132, #80 ) ) ;
#151 = EDGE_LOOP ( 'NONE', ( #85, #198, #130, #117 ) ) ;
#152 = LOCAL_TIME ( 11, 38, 17.00000000000000000, #69 ) ;
#153 = ORIENTED_EDGE ( 'NONE', *, *, #45, .F. ) ;
#154 = PRODUCT ( '6f39', '6f39', '', ( #90 ) ) ;
#155 = ORIENTED_EDGE ( 'NONE', *, *, #211, .T. ) ;
#156 = EDGE_CURVE ( 'NONE', #106, #29, #191, .T. ) ;
#157 = SECURITY_CLASSIFICATION_LEVEL ( 'unclassified' ) ;
#158 = DIRECTION ( 'NONE',  ( -0.000000000000000000, -0.000000000000000000, -1.000000000000000000 ) ) ;
#159 = APPROVAL_DATE_TIME ( #201, #206 ) ;
#160 = PLANE ( 'NONE',  #6 ) ;
#161 = CC_DESIGN_PERSON_AND_ORGANIZATION_ASSIGNMENT ( #220, #118, ( #187 ) ) ;
#162 = DIRECTION ( 'NONE',  ( 1.000000000000000000, 0.000000000000000000, 0.000000000000000000 ) ) ;
#163 = DATE_AND_TIME ( #13, #113 ) ;
#164 = DIRECTION ( 'NONE',  ( 1.000000000000000000, 0.000000000000000000, 0.000000000000000000 ) ) ;
#165 = CIRCLE ( 'NONE', #249, 12.00000000000000178 ) ;
#166 = APPROVAL_ROLE ( '' ) ;
#167 = ADVANCED_FACE ( 'NONE', ( #236 ), #79, .T. ) ;
#168 = DIRECTION ( 'NONE',  ( -0.000000000000000000, -0.000000000000000000, -1.000000000000000000 ) ) ;
#169 = DIRECTION ( 'NONE',  ( 0.000000000000000000, 0.000000000000000000, 1.000000000000000000 ) ) ;
#170 = DIRECTION ( 'NONE',  ( -1.000000000000000000, 0.000000000000000000, 0.000000000000000000 ) ) ;
#171 = VECTOR ( 'NONE', #147, 1000.000000000000000 ) ;
#172 = ORIENTED_EDGE ( 'NONE', *, *, #64, .F. ) ;
#173 = CC_DESIGN_PERSON_AND_ORGANIZATION_ASSIGNMENT ( #54, #254, ( #148 ) ) ;
#174 = ORIENTED_EDGE ( 'NONE', *, *, #156, .F. ) ;
#175 = AXIS2_PLACEMENT_3D ( 'NONE', #35, #92, #140 ) ;
#176 = APPROVAL_STATUS ( 'not_yet_approved' ) ;
#177 = VERTEX_POINT ( 'NONE', #76 ) ;
#178 = PERSON_AND_ORGANIZATION ( #101, #99 ) ;
#179 = CARTESIAN_POINT ( 'NONE',  ( 0.000000000000000000, 0.000000000000000000, 160.0000000000000000 ) ) ;
#180 = CARTESIAN_POINT ( 'NONE',  ( -9.000000000000001776, 0.000000000000000000, 160.0000000000000000 ) ) ;
#181 = CYLINDRICAL_SURFACE ( 'NONE', #3, 12.00000000000000178 ) ;
#182 = CIRCLE ( 'NONE', #103, 12.00000000000000178 ) ;
#183 = ADVANCED_FACE ( 'NONE', ( #149 ), #238, .T. ) ;
#184 = CARTESIAN_POINT ( 'NONE',  ( 0.000000000000000000, 0.000000000000000000, 7.000000000000000000 ) ) ;
#185 = AXIS2_PLACEMENT_3D ( 'NONE', #203, #221, #119 ) ;
#186 = CC_DESIGN_PERSON_AND_ORGANIZATION_ASSIGNMENT ( #74, #197, ( #100 ) ) ;
#187 = SECURITY_CLASSIFICATION ( '', '', #157 ) ;
#188 = CARTESIAN_POINT ( 'NONE',  ( 12.00000000000000178, 1.469576158976824144E-15, 7.000000000000000000 ) ) ;
#189 = ADVANCED_BREP_SHAPE_REPRESENTATION ( '6f39', ( #22, #175 ), #233 ) ;
#190 = CYLINDRICAL_SURFACE ( 'NONE', #65, 9.000000000000001776 ) ;
#191 = CIRCLE ( 'NONE', #231, 9.000000000000001776 ) ;
#192 = CC_DESIGN_PERSON_AND_ORGANIZATION_ASSIGNMENT ( #142, #229, ( #100 ) ) ;
#193 = EDGE_LOOP ( 'NONE', ( #172, #174 ) ) ;
#194 = EDGE_LOOP ( 'NONE', ( #212, #218, #63, #8 ) ) ;
#195 = VERTEX_POINT ( 'NONE', #57 ) ;
#196 = LOCAL_TIME ( 11, 38, 17.00000000000000000, #250 ) ;
#197 = PERSON_AND_ORGANIZATION_ROLE ( 'creator' ) ;
#198 = ORIENTED_EDGE ( 'NONE', *, *, #228, .T. ) ;
#199 = FACE_OUTER_BOUND ( 'NONE', #214, .T. ) ;
#200 = CARTESIAN_POINT ( 'NONE',  ( 0.000000000000000000, 0.000000000000000000, 7.000000000000000000 ) ) ;
#201 = DATE_AND_TIME ( #66, #152 ) ;
#202 = EDGE_CURVE ( 'NONE', #243, #177, #30, .T. ) ;
#203 = CARTESIAN_POINT ( 'NONE',  ( 0.000000000000000000, 0.000000000000000000, 7.000000000000000000 ) ) ;
#204 = APPROVAL_PERSON_ORGANIZATION ( #94, #223, #166 ) ;
#205 = DIRECTION ( 'NONE',  ( 1.000000000000000000, 0.000000000000000000, 0.000000000000000000 ) ) ;
#206 = APPROVAL ( #89, 'NEURÈENÝ' ) ;
#207 = DIRECTION ( 'NONE',  ( 1.000000000000000000, 0.000000000000000000, 0.000000000000000000 ) ) ;
#208 = CIRCLE ( 'NONE', #88, 12.00000000000000178 ) ;
#209 = DIRECTION ( 'NONE',  ( 1.000000000000000000, 0.000000000000000000, 0.000000000000000000 ) ) ;
#210 = FACE_OUTER_BOUND ( 'NONE', #213, .T. ) ;
#211 = EDGE_CURVE ( 'NONE', #44, #114, #104, .T. ) ;
#212 = ORIENTED_EDGE ( 'NONE', *, *, #128, .F. ) ;
#213 = EDGE_LOOP ( 'NONE', ( #25, #10, #84, #115 ) ) ;
#214 = EDGE_LOOP ( 'NONE', ( #5, #242 ) ) ;
#215 = CARTESIAN_POINT ( 'NONE',  ( 0.000000000000000000, 0.000000000000000000, 0.000000000000000000 ) ) ;
#216 = PRODUCT_DEFINITION_SHAPE ( 'NONE', 'NONE',  #148 ) ;
#217 = CIRCLE ( 'NONE', #185, 9.000000000000001776 ) ;
#218 = ORIENTED_EDGE ( 'NONE', *, *, #211, .F. ) ;
#219 = CC_DESIGN_APPROVAL ( #223, ( #148 ) ) ;
#220 = PERSON_AND_ORGANIZATION ( #101, #99 ) ;
#221 = DIRECTION ( 'NONE',  ( 0.000000000000000000, 0.000000000000000000, 1.000000000000000000 ) ) ;
#222 = COORDINATED_UNIVERSAL_TIME_OFFSET ( 1, 0, .AHEAD. ) ;
#223 = APPROVAL ( #136, 'NEURÈENÝ' ) ;
#224 = DIRECTION ( 'NONE',  ( 1.000000000000000000, 0.000000000000000000, -0.000000000000000000 ) ) ;
#225 = FACE_BOUND ( 'NONE', #193, .T. ) ;
#226 = AXIS2_PLACEMENT_3D ( 'NONE', #21, #169, #1 ) ;
#227 = APPLICATION_PROTOCOL_DEFINITION ( 'international standard', 'config_control_design', 1994, #36 ) ;
#228 = EDGE_CURVE ( 'NONE', #87, #243, #98, .T. ) ;
#229 = PERSON_AND_ORGANIZATION_ROLE ( 'design_supplier' ) ;
#230 = DIRECTION ( 'NONE',  ( 0.000000000000000000, 0.000000000000000000, 1.000000000000000000 ) ) ;
#231 = AXIS2_PLACEMENT_3D ( 'NONE', #184, #110, #207 ) ;
#232 = DIRECTION ( 'NONE',  ( -1.000000000000000000, 0.000000000000000000, 0.000000000000000000 ) ) ;
#233 =( GEOMETRIC_REPRESENTATION_CONTEXT ( 3 ) GLOBAL_UNCERTAINTY_ASSIGNED_CONTEXT ( ( #17 ) ) GLOBAL_UNIT_ASSIGNED_CONTEXT ( ( #43, #127, #27 ) ) REPRESENTATION_CONTEXT ( 'NONE', 'WORKASPACE' ) );
#234 = CARTESIAN_POINT ( 'NONE',  ( -9.000000000000001776, 0.000000000000000000, 160.0000000000000000 ) ) ;
#235 = CARTESIAN_POINT ( 'NONE',  ( 0.000000000000000000, 0.000000000000000000, 160.0000000000000000 ) ) ;
#236 = FACE_OUTER_BOUND ( 'NONE', #194, .T. ) ;
#237 = LOCAL_TIME ( 11, 38, 17.00000000000000000, #47 ) ;
#238 = CYLINDRICAL_SURFACE ( 'NONE', #81, 12.00000000000000178 ) ;
#239 = AXIS2_PLACEMENT_3D ( 'NONE', #215, #102, #95 ) ;
#240 = AXIS2_PLACEMENT_3D ( 'NONE', #60, #126, #205 ) ;
#241 = ADVANCED_FACE ( 'NONE', ( #125 ), #40, .T. ) ;
#242 = ORIENTED_EDGE ( 'NONE', *, *, #49, .T. ) ;
#243 = VERTEX_POINT ( 'NONE', #78 ) ;
#244 = SHAPE_DEFINITION_REPRESENTATION ( #216, #189 ) ;
#245 = CC_DESIGN_DATE_AND_TIME_ASSIGNMENT ( #248, #71, ( #148 ) ) ;
#246 = DATE_TIME_ROLE ( 'classification_date' ) ;
#247 = CARTESIAN_POINT ( 'NONE',  ( 0.000000000000000000, 0.000000000000000000, 7.000000000000000000 ) ) ;
#248 = DATE_AND_TIME ( #53, #196 ) ;
#249 = AXIS2_PLACEMENT_3D ( 'NONE', #139, #135, #91 ) ;
#250 = COORDINATED_UNIVERSAL_TIME_OFFSET ( 1, 0, .AHEAD. ) ;
#251 = CARTESIAN_POINT ( 'NONE',  ( 9.000000000000001776, 1.102182119232617911E-15, 7.000000000000000000 ) ) ;
#252 = ADVANCED_FACE ( 'NONE', ( #210 ), #190, .T. ) ;
#253 = APPROVAL_PERSON_ORGANIZATION ( #178, #206, #124 ) ;
#254 = PERSON_AND_ORGANIZATION_ROLE ( 'creator' ) ;
#255 = CARTESIAN_POINT ( 'NONE',  ( -9.000000000000001776, 0.000000000000000000, 7.000000000000000000 ) ) ;
ENDSEC;
END-ISO-10303-21;
