ISO-10303-21;
HEADER;
FILE_DESCRIPTION (( 'STEP AP203' ),
    '1' );
FILE_NAME ('2622.STEP',
    '2023-02-12T11:31:00',
    ( '' ),
    ( '' ),
    'SwSTEP 2.0',
    'SolidWorks 2019',
    '' );
FILE_SCHEMA (( 'CONFIG_CONTROL_DESIGN' ));
ENDSEC;

DATA;
#1 = CALENDAR_DATE ( 2023, 12, 2 ) ;
#2 = CARTESIAN_POINT ( 'NONE',  ( 3.250000000000000444, 3.980102097228898231E-16, 250.0000000000000000 ) ) ;
#3 = CIRCLE ( 'NONE', #190, 3.250000000000000444 ) ;
#4 = CARTESIAN_POINT ( 'NONE',  ( 0.000000000000000000, 0.000000000000000000, 5.000000000000000000 ) ) ;
#5 = APPROVAL ( #46, 'NEURÈENÝ' ) ;
#6 = APPROVAL_ROLE ( '' ) ;
#7 = DIRECTION ( 'NONE',  ( 1.000000000000000000, 0.000000000000000000, 0.000000000000000000 ) ) ;
#8 = EDGE_CURVE ( 'NONE', #35, #54, #76, .T. ) ;
#9 = AXIS2_PLACEMENT_3D ( 'NONE', #255, #152, #181 ) ;
#10 = DIRECTION ( 'NONE',  ( -1.000000000000000000, 0.000000000000000000, 0.000000000000000000 ) ) ;
#11 = CARTESIAN_POINT ( 'NONE',  ( -3.250000000000000444, 0.000000000000000000, 5.000000000000000000 ) ) ;
#12 = CIRCLE ( 'NONE', #50, 3.250000000000000444 ) ;
#13 = EDGE_LOOP ( 'NONE', ( #40, #73 ) ) ;
#14 = LOCAL_TIME ( 12, 31, 0.000000000000000000, #204 ) ;
#15 = PERSON_AND_ORGANIZATION ( #173, #22 ) ;
#16 = EDGE_CURVE ( 'NONE', #93, #35, #68, .T. ) ;
#17 = DIRECTION ( 'NONE',  ( 0.000000000000000000, 0.000000000000000000, 1.000000000000000000 ) ) ;
#18 = DATE_AND_TIME ( #166, #55 ) ;
#19 = DIRECTION ( 'NONE',  ( -0.000000000000000000, -0.000000000000000000, -1.000000000000000000 ) ) ;
#20 = PERSON_AND_ORGANIZATION ( #173, #22 ) ;
#21 = CARTESIAN_POINT ( 'NONE',  ( 0.000000000000000000, 0.000000000000000000, 5.000000000000000000 ) ) ;
#22 = ORGANIZATION ( 'NEURÈENÝ', 'NEURÈENÝ', '' ) ;
#23 = CARTESIAN_POINT ( 'NONE',  ( 0.000000000000000000, 0.000000000000000000, 0.000000000000000000 ) ) ;
#24 = LINE ( 'NONE', #172, #189 ) ;
#25 = APPROVAL_PERSON_ORGANIZATION ( #15, #78, #6 ) ;
#26 = PRODUCT_DEFINITION_SHAPE ( 'NONE', 'NONE',  #134 ) ;
#27 = DIRECTION ( 'NONE',  ( -1.000000000000000000, 0.000000000000000000, 0.000000000000000000 ) ) ;
#28 = APPLICATION_CONTEXT ( 'configuration controlled 3d designs of mechanical parts and assemblies' ) ;
#29 = DIRECTION ( 'NONE',  ( 0.000000000000000000, 0.000000000000000000, 1.000000000000000000 ) ) ;
#30 = CC_DESIGN_PERSON_AND_ORGANIZATION_ASSIGNMENT ( #80, #212, ( #117 ) ) ;
#31 = FACE_OUTER_BOUND ( 'NONE', #198, .T. ) ;
#32 = CYLINDRICAL_SURFACE ( 'NONE', #210, 6.000000000000000888 ) ;
#33 = CIRCLE ( 'NONE', #65, 3.250000000000000444 ) ;
#34 = CARTESIAN_POINT ( 'NONE',  ( 0.000000000000000000, 0.000000000000000000, 0.000000000000000000 ) ) ;
#35 = VERTEX_POINT ( 'NONE', #194 ) ;
#36 = AXIS2_PLACEMENT_3D ( 'NONE', #88, #71, #51 ) ;
#37 = ORIENTED_EDGE ( 'NONE', *, *, #16, .T. ) ;
#38 = ADVANCED_BREP_SHAPE_REPRESENTATION ( '2622', ( #140, #216 ), #170 ) ;
#39 = LOCAL_TIME ( 12, 31, 0.000000000000000000, #151 ) ;
#40 = ORIENTED_EDGE ( 'NONE', *, *, #142, .T. ) ;
#41 = EDGE_CURVE ( 'NONE', #217, #54, #52, .T. ) ;
#42 = DIRECTION ( 'NONE',  ( -1.000000000000000000, 0.000000000000000000, 0.000000000000000000 ) ) ;
#43 = APPROVAL_PERSON_ORGANIZATION ( #208, #5, #122 ) ;
#44 = CARTESIAN_POINT ( 'NONE',  ( 3.250000000000000444, 3.980102097228898231E-16, 250.0000000000000000 ) ) ;
#45 = MECHANICAL_CONTEXT ( 'NONE', #28, 'mechanical' ) ;
#46 = APPROVAL_STATUS ( 'not_yet_approved' ) ;
#47 = PLANE ( 'NONE',  #95 ) ;
#48 = DIRECTION ( 'NONE',  ( 0.000000000000000000, 0.000000000000000000, 1.000000000000000000 ) ) ;
#49 = ADVANCED_FACE ( 'NONE', ( #89 ), #193, .T. ) ;
#50 = AXIS2_PLACEMENT_3D ( 'NONE', #167, #252, #118 ) ;
#51 = DIRECTION ( 'NONE',  ( 1.000000000000000000, 0.000000000000000000, 0.000000000000000000 ) ) ;
#52 = CIRCLE ( 'NONE', #62, 6.000000000000000888 ) ;
#53 = DIRECTION ( 'NONE',  ( -0.000000000000000000, -0.000000000000000000, -1.000000000000000000 ) ) ;
#54 = VERTEX_POINT ( 'NONE', #195 ) ;
#55 = LOCAL_TIME ( 12, 31, 0.000000000000000000, #227 ) ;
#56 = ORIENTED_EDGE ( 'NONE', *, *, #57, .T. ) ;
#57 = EDGE_CURVE ( 'NONE', #242, #79, #3, .T. ) ;
#58 = EDGE_CURVE ( 'NONE', #93, #217, #24, .T. ) ;
#59 = APPROVAL_STATUS ( 'not_yet_approved' ) ;
#60 = UNCERTAINTY_MEASURE_WITH_UNIT (LENGTH_MEASURE( 1.000000000000000082E-05 ), #133, 'distance_accuracy_value', 'NONE');
#61 = APPLICATION_CONTEXT ( 'configuration controlled 3d designs of mechanical parts and assemblies' ) ;
#62 = AXIS2_PLACEMENT_3D ( 'NONE', #34, #127, #146 ) ;
#63 = APPROVAL_DATE_TIME ( #103, #5 ) ;
#64 = PERSON_AND_ORGANIZATION ( #173, #22 ) ;
#65 = AXIS2_PLACEMENT_3D ( 'NONE', #100, #165, #222 ) ;
#66 = PLANE ( 'NONE',  #223 ) ;
#67 = CARTESIAN_POINT ( 'NONE',  ( -6.000000000000000888, 0.000000000000000000, 5.000000000000000000 ) ) ;
#68 = CIRCLE ( 'NONE', #36, 6.000000000000000888 ) ;
#69 = CC_DESIGN_PERSON_AND_ORGANIZATION_ASSIGNMENT ( #182, #180, ( #134 ) ) ;
#70 = DIRECTION ( 'NONE',  ( 0.000000000000000000, 0.000000000000000000, 1.000000000000000000 ) ) ;
#71 = DIRECTION ( 'NONE',  ( 0.000000000000000000, 0.000000000000000000, 1.000000000000000000 ) ) ;
#72 = CC_DESIGN_SECURITY_CLASSIFICATION ( #107, ( #117 ) ) ;
#73 = ORIENTED_EDGE ( 'NONE', *, *, #161, .T. ) ;
#74 = ORIENTED_EDGE ( 'NONE', *, *, #186, .T. ) ;
#75 = VECTOR ( 'NONE', #53, 1000.000000000000000 ) ;
#76 = LINE ( 'NONE', #67, #75 ) ;
#77 = LOCAL_TIME ( 12, 31, 0.000000000000000000, #141 ) ;
#78 = APPROVAL ( #59, 'NEURÈENÝ' ) ;
#79 = VERTEX_POINT ( 'NONE', #11 ) ;
#80 = PERSON_AND_ORGANIZATION ( #173, #22 ) ;
#81 = FACE_OUTER_BOUND ( 'NONE', #160, .T. ) ;
#82 = PERSON_AND_ORGANIZATION_ROLE ( 'design_supplier' ) ;
#83 = AXIS2_PLACEMENT_3D ( 'NONE', #150, #120, #104 ) ;
#84 = APPROVAL ( #102, 'NEURÈENÝ' ) ;
#85 = PERSON_AND_ORGANIZATION_ROLE ( 'classification_officer' ) ;
#86 = DATE_AND_TIME ( #1, #14 ) ;
#87 = ADVANCED_FACE ( 'NONE', ( #157 ), #32, .T. ) ;
#88 = CARTESIAN_POINT ( 'NONE',  ( 0.000000000000000000, 0.000000000000000000, 5.000000000000000000 ) ) ;
#89 = FACE_OUTER_BOUND ( 'NONE', #97, .T. ) ;
#90 = VERTEX_POINT ( 'NONE', #94 ) ;
#91 = CIRCLE ( 'NONE', #9, 6.000000000000000888 ) ;
#92 = DIRECTION ( 'NONE',  ( -0.000000000000000000, -0.000000000000000000, -1.000000000000000000 ) ) ;
#93 = VERTEX_POINT ( 'NONE', #239 ) ;
#94 = CARTESIAN_POINT ( 'NONE',  ( -3.250000000000000444, 0.000000000000000000, 250.0000000000000000 ) ) ;
#95 = AXIS2_PLACEMENT_3D ( 'NONE', #21, #17, #185 ) ;
#96 = ORIENTED_EDGE ( 'NONE', *, *, #142, .F. ) ;
#97 = EDGE_LOOP ( 'NONE', ( #246, #96, #238, #106 ) ) ;
#98 = ORIENTED_EDGE ( 'NONE', *, *, #41, .T. ) ;
#99 = CLOSED_SHELL ( 'NONE', ( #201, #245, #87, #101, #237, #49, #249 ) ) ;
#100 = CARTESIAN_POINT ( 'NONE',  ( 0.000000000000000000, 0.000000000000000000, 5.000000000000000000 ) ) ;
#101 = ADVANCED_FACE ( 'NONE', ( #247, #218 ), #47, .T. ) ;
#102 = APPROVAL_STATUS ( 'not_yet_approved' ) ;
#103 = DATE_AND_TIME ( #183, #77 ) ;
#104 = DIRECTION ( 'NONE',  ( 1.000000000000000000, 0.000000000000000000, 0.000000000000000000 ) ) ;
#105 = DIRECTION ( 'NONE',  ( -0.000000000000000000, -0.000000000000000000, -1.000000000000000000 ) ) ;
#106 = ORIENTED_EDGE ( 'NONE', *, *, #211, .T. ) ;
#107 = SECURITY_CLASSIFICATION ( '', '', #251 ) ;
#108 = CARTESIAN_POINT ( 'NONE',  ( 0.000000000000000000, 0.000000000000000000, 5.000000000000000000 ) ) ;
#109 = ORIENTED_EDGE ( 'NONE', *, *, #58, .T. ) ;
#110 = ORIENTED_EDGE ( 'NONE', *, *, #8, .F. ) ;
#111 = DIRECTION ( 'NONE',  ( -0.000000000000000000, -0.000000000000000000, -1.000000000000000000 ) ) ;
#112 = ORIENTED_EDGE ( 'NONE', *, *, #115, .F. ) ;
#113 = CIRCLE ( 'NONE', #162, 6.000000000000000888 ) ;
#114 = ORIENTED_EDGE ( 'NONE', *, *, #186, .F. ) ;
#115 = EDGE_CURVE ( 'NONE', #90, #79, #123, .T. ) ;
#116 = APPLICATION_PROTOCOL_DEFINITION ( 'international standard', 'config_control_design', 1994, #28 ) ;
#117 = PRODUCT_DEFINITION_FORMATION_WITH_SPECIFIED_SOURCE ( 'LIBOVOLNÝ', '', #171, .NOT_KNOWN. ) ;
#118 = DIRECTION ( 'NONE',  ( 1.000000000000000000, 0.000000000000000000, 0.000000000000000000 ) ) ;
#119 = CC_DESIGN_DATE_AND_TIME_ASSIGNMENT ( #18, #250, ( #134 ) ) ;
#120 = DIRECTION ( 'NONE',  ( 0.000000000000000000, 0.000000000000000000, 1.000000000000000000 ) ) ;
#121 = PERSON_AND_ORGANIZATION ( #173, #22 ) ;
#122 = APPROVAL_ROLE ( '' ) ;
#123 = LINE ( 'NONE', #168, #125 ) ;
#124 = AXIS2_PLACEMENT_3D ( 'NONE', #130, #174, #27 ) ;
#125 = VECTOR ( 'NONE', #105, 1000.000000000000000 ) ;
#126 = CYLINDRICAL_SURFACE ( 'NONE', #192, 6.000000000000000888 ) ;
#127 = DIRECTION ( 'NONE',  ( 0.000000000000000000, 0.000000000000000000, 1.000000000000000000 ) ) ;
#128 = DIRECTION ( 'NONE',  ( 1.000000000000000000, 0.000000000000000000, -0.000000000000000000 ) ) ;
#129 = CARTESIAN_POINT ( 'NONE',  ( 3.250000000000000444, 3.980102097228898231E-16, 5.000000000000000000 ) ) ;
#130 = CARTESIAN_POINT ( 'NONE',  ( 0.000000000000000000, 0.000000000000000000, 250.0000000000000000 ) ) ;
#131 = CC_DESIGN_APPROVAL ( #84, ( #134 ) ) ;
#132 = ORIENTED_EDGE ( 'NONE', *, *, #41, .F. ) ;
#133 =( LENGTH_UNIT ( ) NAMED_UNIT ( * ) SI_UNIT ( .MILLI., .METRE. ) );
#134 = PRODUCT_DEFINITION ( 'NEZNÁMÝ', '', #117, #191 ) ;
#135 = VERTEX_POINT ( 'NONE', #2 ) ;
#136 = CC_DESIGN_PERSON_AND_ORGANIZATION_ASSIGNMENT ( #64, #85, ( #107 ) ) ;
#137 = DIRECTION ( 'NONE',  ( -0.000000000000000000, -0.000000000000000000, -1.000000000000000000 ) ) ;
#138 = AXIS2_PLACEMENT_3D ( 'NONE', #184, #137, #42 ) ;
#139 = CARTESIAN_POINT ( 'NONE',  ( 6.000000000000000888, 7.347880794884120722E-16, 0.000000000000000000 ) ) ;
#140 = MANIFOLD_SOLID_BREP ( 'Pøidat vysunutím3', #99 ) ;
#141 = COORDINATED_UNIVERSAL_TIME_OFFSET ( 1, 0, .AHEAD. ) ;
#142 = EDGE_CURVE ( 'NONE', #90, #135, #12, .T. ) ;
#143 = CARTESIAN_POINT ( 'NONE',  ( 0.000000000000000000, 0.000000000000000000, 5.000000000000000000 ) ) ;
#144 = AXIS2_PLACEMENT_3D ( 'NONE', #230, #48, #232 ) ;
#145 = CC_DESIGN_DATE_AND_TIME_ASSIGNMENT ( #225, #179, ( #107 ) ) ;
#146 = DIRECTION ( 'NONE',  ( 1.000000000000000000, 0.000000000000000000, 0.000000000000000000 ) ) ;
#147 = ORIENTED_EDGE ( 'NONE', *, *, #58, .F. ) ;
#148 = DIRECTION ( 'NONE',  ( 1.000000000000000000, 0.000000000000000000, 0.000000000000000000 ) ) ;
#149 = PERSON_AND_ORGANIZATION_ROLE ( 'design_owner' ) ;
#150 = CARTESIAN_POINT ( 'NONE',  ( 0.000000000000000000, 0.000000000000000000, 250.0000000000000000 ) ) ;
#151 = COORDINATED_UNIVERSAL_TIME_OFFSET ( 1, 0, .AHEAD. ) ;
#152 = DIRECTION ( 'NONE',  ( 0.000000000000000000, 0.000000000000000000, 1.000000000000000000 ) ) ;
#153 = ORIENTED_EDGE ( 'NONE', *, *, #161, .F. ) ;
#154 = SHAPE_DEFINITION_REPRESENTATION ( #26, #38 ) ;
#155 = FACE_OUTER_BOUND ( 'NONE', #196, .T. ) ;
#156 = ORIENTED_EDGE ( 'NONE', *, *, #8, .T. ) ;
#157 = FACE_OUTER_BOUND ( 'NONE', #240, .T. ) ;
#158 = EDGE_LOOP ( 'NONE', ( #234, #202 ) ) ;
#159 = ORIENTED_EDGE ( 'NONE', *, *, #206, .T. ) ;
#160 = EDGE_LOOP ( 'NONE', ( #153, #200, #56, #112 ) ) ;
#161 = EDGE_CURVE ( 'NONE', #135, #90, #175, .T. ) ;
#162 = AXIS2_PLACEMENT_3D ( 'NONE', #248, #228, #164 ) ;
#163 = APPROVAL_DATE_TIME ( #86, #84 ) ;
#164 = DIRECTION ( 'NONE',  ( 1.000000000000000000, 0.000000000000000000, 0.000000000000000000 ) ) ;
#165 = DIRECTION ( 'NONE',  ( 0.000000000000000000, 0.000000000000000000, 1.000000000000000000 ) ) ;
#166 = CALENDAR_DATE ( 2023, 12, 2 ) ;
#167 = CARTESIAN_POINT ( 'NONE',  ( 0.000000000000000000, 0.000000000000000000, 250.0000000000000000 ) ) ;
#168 = CARTESIAN_POINT ( 'NONE',  ( -3.250000000000000444, 0.000000000000000000, 250.0000000000000000 ) ) ;
#169 = CC_DESIGN_PERSON_AND_ORGANIZATION_ASSIGNMENT ( #254, #82, ( #117 ) ) ;
#170 =( GEOMETRIC_REPRESENTATION_CONTEXT ( 3 ) GLOBAL_UNCERTAINTY_ASSIGNED_CONTEXT ( ( #60 ) ) GLOBAL_UNIT_ASSIGNED_CONTEXT ( ( #133, #203, #241 ) ) REPRESENTATION_CONTEXT ( 'NONE', 'WORKASPACE' ) );
#171 = PRODUCT ( '2622', '2622', '', ( #45 ) ) ;
#172 = CARTESIAN_POINT ( 'NONE',  ( 6.000000000000000888, 7.347880794884120722E-16, 5.000000000000000000 ) ) ;
#173 = PERSON ( 'NEURÈENÝ', 'NEURÈENÝ', 'NEURÈENÝ', ('NEURÈENÝ'), ('NEURÈENÝ'), ('NEURÈENÝ') ) ;
#174 = DIRECTION ( 'NONE',  ( -0.000000000000000000, -0.000000000000000000, -1.000000000000000000 ) ) ;
#175 = CIRCLE ( 'NONE', #83, 3.250000000000000444 ) ;
#176 = EDGE_LOOP ( 'NONE', ( #159, #37 ) ) ;
#177 = CC_DESIGN_PERSON_AND_ORGANIZATION_ASSIGNMENT ( #20, #149, ( #171 ) ) ;
#178 = ORIENTED_EDGE ( 'NONE', *, *, #206, .F. ) ;
#179 = DATE_TIME_ROLE ( 'classification_date' ) ;
#180 = PERSON_AND_ORGANIZATION_ROLE ( 'creator' ) ;
#181 = DIRECTION ( 'NONE',  ( 1.000000000000000000, 0.000000000000000000, 0.000000000000000000 ) ) ;
#182 = PERSON_AND_ORGANIZATION ( #173, #22 ) ;
#183 = CALENDAR_DATE ( 2023, 12, 2 ) ;
#184 = CARTESIAN_POINT ( 'NONE',  ( 0.000000000000000000, 0.000000000000000000, 250.0000000000000000 ) ) ;
#185 = DIRECTION ( 'NONE',  ( 1.000000000000000000, 0.000000000000000000, -0.000000000000000000 ) ) ;
#186 = EDGE_CURVE ( 'NONE', #54, #217, #113, .T. ) ;
#187 = COORDINATED_UNIVERSAL_TIME_OFFSET ( 1, 0, .AHEAD. ) ;
#188 = PLANE ( 'NONE',  #144 ) ;
#189 = VECTOR ( 'NONE', #111, 1000.000000000000000 ) ;
#190 = AXIS2_PLACEMENT_3D ( 'NONE', #143, #29, #7 ) ;
#191 = DESIGN_CONTEXT ( 'detailed design', #61, 'design' ) ;
#192 = AXIS2_PLACEMENT_3D ( 'NONE', #4, #92, #236 ) ;
#193 = CYLINDRICAL_SURFACE ( 'NONE', #124, 3.250000000000000444 ) ;
#194 = CARTESIAN_POINT ( 'NONE',  ( -6.000000000000000888, 0.000000000000000000, 5.000000000000000000 ) ) ;
#195 = CARTESIAN_POINT ( 'NONE',  ( -6.000000000000000888, 0.000000000000000000, 0.000000000000000000 ) ) ;
#196 = EDGE_LOOP ( 'NONE', ( #114, #132 ) ) ;
#197 = VECTOR ( 'NONE', #19, 1000.000000000000000 ) ;
#198 = EDGE_LOOP ( 'NONE', ( #244, #109, #98, #110 ) ) ;
#199 = PRODUCT_RELATED_PRODUCT_CATEGORY ( 'detail', '', ( #171 ) ) ;
#200 = ORIENTED_EDGE ( 'NONE', *, *, #226, .T. ) ;
#201 = ADVANCED_FACE ( 'NONE', ( #81 ), #221, .T. ) ;
#202 = ORIENTED_EDGE ( 'NONE', *, *, #57, .F. ) ;
#203 =( NAMED_UNIT ( * ) PLANE_ANGLE_UNIT ( ) SI_UNIT ( $, .RADIAN. ) );
#204 = COORDINATED_UNIVERSAL_TIME_OFFSET ( 1, 0, .AHEAD. ) ;
#205 = CC_DESIGN_APPROVAL ( #5, ( #117 ) ) ;
#206 = EDGE_CURVE ( 'NONE', #35, #93, #91, .T. ) ;
#207 = LINE ( 'NONE', #44, #197 ) ;
#208 = PERSON_AND_ORGANIZATION ( #173, #22 ) ;
#209 = APPROVAL_ROLE ( '' ) ;
#210 = AXIS2_PLACEMENT_3D ( 'NONE', #108, #243, #10 ) ;
#211 = EDGE_CURVE ( 'NONE', #79, #242, #33, .T. ) ;
#212 = PERSON_AND_ORGANIZATION_ROLE ( 'creator' ) ;
#213 = DATE_AND_TIME ( #235, #253 ) ;
#214 = CARTESIAN_POINT ( 'NONE',  ( 0.000000000000000000, 0.000000000000000000, 250.0000000000000000 ) ) ;
#215 = APPROVAL_DATE_TIME ( #213, #78 ) ;
#216 = AXIS2_PLACEMENT_3D ( 'NONE', #23, #219, #148 ) ;
#217 = VERTEX_POINT ( 'NONE', #139 ) ;
#218 = FACE_OUTER_BOUND ( 'NONE', #176, .T. ) ;
#219 = DIRECTION ( 'NONE',  ( 0.000000000000000000, 0.000000000000000000, 1.000000000000000000 ) ) ;
#220 = APPLICATION_PROTOCOL_DEFINITION ( 'international standard', 'config_control_design', 1994, #61 ) ;
#221 = CYLINDRICAL_SURFACE ( 'NONE', #138, 3.250000000000000444 ) ;
#222 = DIRECTION ( 'NONE',  ( 1.000000000000000000, 0.000000000000000000, 0.000000000000000000 ) ) ;
#223 = AXIS2_PLACEMENT_3D ( 'NONE', #214, #70, #128 ) ;
#224 = CALENDAR_DATE ( 2023, 12, 2 ) ;
#225 = DATE_AND_TIME ( #224, #39 ) ;
#226 = EDGE_CURVE ( 'NONE', #135, #242, #207, .T. ) ;
#227 = COORDINATED_UNIVERSAL_TIME_OFFSET ( 1, 0, .AHEAD. ) ;
#228 = DIRECTION ( 'NONE',  ( 0.000000000000000000, 0.000000000000000000, 1.000000000000000000 ) ) ;
#229 = APPROVAL_PERSON_ORGANIZATION ( #121, #84, #209 ) ;
#230 = CARTESIAN_POINT ( 'NONE',  ( 0.000000000000000000, 0.000000000000000000, 0.000000000000000000 ) ) ;
#231 = FACE_OUTER_BOUND ( 'NONE', #13, .T. ) ;
#232 = DIRECTION ( 'NONE',  ( 1.000000000000000000, 0.000000000000000000, -0.000000000000000000 ) ) ;
#233 = CC_DESIGN_APPROVAL ( #78, ( #107 ) ) ;
#234 = ORIENTED_EDGE ( 'NONE', *, *, #211, .F. ) ;
#235 = CALENDAR_DATE ( 2023, 12, 2 ) ;
#236 = DIRECTION ( 'NONE',  ( -1.000000000000000000, 0.000000000000000000, 0.000000000000000000 ) ) ;
#237 = ADVANCED_FACE ( 'NONE', ( #155 ), #188, .F. ) ;
#238 = ORIENTED_EDGE ( 'NONE', *, *, #115, .T. ) ;
#239 = CARTESIAN_POINT ( 'NONE',  ( 6.000000000000000888, 7.347880794884120722E-16, 5.000000000000000000 ) ) ;
#240 = EDGE_LOOP ( 'NONE', ( #147, #178, #156, #74 ) ) ;
#241 =( NAMED_UNIT ( * ) SI_UNIT ( $, .STERADIAN. ) SOLID_ANGLE_UNIT ( ) );
#242 = VERTEX_POINT ( 'NONE', #129 ) ;
#243 = DIRECTION ( 'NONE',  ( -0.000000000000000000, -0.000000000000000000, -1.000000000000000000 ) ) ;
#244 = ORIENTED_EDGE ( 'NONE', *, *, #16, .F. ) ;
#245 = ADVANCED_FACE ( 'NONE', ( #31 ), #126, .T. ) ;
#246 = ORIENTED_EDGE ( 'NONE', *, *, #226, .F. ) ;
#247 = FACE_BOUND ( 'NONE', #158, .T. ) ;
#248 = CARTESIAN_POINT ( 'NONE',  ( 0.000000000000000000, 0.000000000000000000, 0.000000000000000000 ) ) ;
#249 = ADVANCED_FACE ( 'NONE', ( #231 ), #66, .T. ) ;
#250 = DATE_TIME_ROLE ( 'creation_date' ) ;
#251 = SECURITY_CLASSIFICATION_LEVEL ( 'unclassified' ) ;
#252 = DIRECTION ( 'NONE',  ( 0.000000000000000000, 0.000000000000000000, 1.000000000000000000 ) ) ;
#253 = LOCAL_TIME ( 12, 31, 0.000000000000000000, #187 ) ;
#254 = PERSON_AND_ORGANIZATION ( #173, #22 ) ;
#255 = CARTESIAN_POINT ( 'NONE',  ( 0.000000000000000000, 0.000000000000000000, 5.000000000000000000 ) ) ;
ENDSEC;
END-ISO-10303-21;
