ISO-10303-21;
HEADER;
FILE_DESCRIPTION (( 'STEP AP203' ),
    '1' );
FILE_NAME ('4736.STEP',
    '2023-02-12T11:31:40',
    ( '' ),
    ( '' ),
    'SwSTEP 2.0',
    'SolidWorks 2019',
    '' );
FILE_SCHEMA (( 'CONFIG_CONTROL_DESIGN' ));
ENDSEC;

DATA;
#1 = DIRECTION ( 'NONE',  ( 0.000000000000000000, 0.000000000000000000, 1.000000000000000000 ) ) ;
#2 = ORIENTED_EDGE ( 'NONE', *, *, #50, .F. ) ;
#3 = DATE_AND_TIME ( #154, #55 ) ;
#4 = CC_DESIGN_PERSON_AND_ORGANIZATION_ASSIGNMENT ( #224, #28, ( #56 ) ) ;
#5 = AXIS2_PLACEMENT_3D ( 'NONE', #88, #1, #221 ) ;
#6 = COORDINATED_UNIVERSAL_TIME_OFFSET ( 1, 0, .AHEAD. ) ;
#7 = DIRECTION ( 'NONE',  ( 1.000000000000000000, 0.000000000000000000, -0.000000000000000000 ) ) ;
#8 = VECTOR ( 'NONE', #249, 1000.000000000000000 ) ;
#9 = LINE ( 'NONE', #225, #8 ) ;
#10 = AXIS2_PLACEMENT_3D ( 'NONE', #139, #29, #219 ) ;
#11 = DIRECTION ( 'NONE',  ( -0.000000000000000000, -0.000000000000000000, -1.000000000000000000 ) ) ;
#12 = FACE_OUTER_BOUND ( 'NONE', #123, .T. ) ;
#13 = CARTESIAN_POINT ( 'NONE',  ( 0.000000000000000000, 0.000000000000000000, 0.000000000000000000 ) ) ;
#14 = ORIENTED_EDGE ( 'NONE', *, *, #80, .F. ) ;
#15 = ADVANCED_FACE ( 'NONE', ( #73 ), #222, .T. ) ;
#16 = ORIENTED_EDGE ( 'NONE', *, *, #198, .T. ) ;
#17 = CARTESIAN_POINT ( 'NONE',  ( 0.000000000000000000, 0.000000000000000000, 0.000000000000000000 ) ) ;
#18 = LINE ( 'NONE', #174, #158 ) ;
#19 = ADVANCED_FACE ( 'NONE', ( #152 ), #218, .F. ) ;
#20 = AXIS2_PLACEMENT_3D ( 'NONE', #22, #151, #40 ) ;
#21 = APPROVAL_DATE_TIME ( #178, #155 ) ;
#22 = CARTESIAN_POINT ( 'NONE',  ( 0.000000000000000000, 0.000000000000000000, 5.000000000000000000 ) ) ;
#23 = FACE_OUTER_BOUND ( 'NONE', #236, .T. ) ;
#24 = LOCAL_TIME ( 12, 31, 40.00000000000000000, #26 ) ;
#25 = PERSON_AND_ORGANIZATION ( #131, #79 ) ;
#26 = COORDINATED_UNIVERSAL_TIME_OFFSET ( 1, 0, .AHEAD. ) ;
#27 = DIRECTION ( 'NONE',  ( -0.000000000000000000, -0.000000000000000000, -1.000000000000000000 ) ) ;
#28 = PERSON_AND_ORGANIZATION_ROLE ( 'design_owner' ) ;
#29 = DIRECTION ( 'NONE',  ( 0.000000000000000000, 0.000000000000000000, 1.000000000000000000 ) ) ;
#30 = DIRECTION ( 'NONE',  ( 1.000000000000000000, 0.000000000000000000, 0.000000000000000000 ) ) ;
#31 = CIRCLE ( 'NONE', #44, 3.250000000000000444 ) ;
#32 = CARTESIAN_POINT ( 'NONE',  ( 0.000000000000000000, 0.000000000000000000, 125.0000000000000000 ) ) ;
#33 = DESIGN_CONTEXT ( 'detailed design', #121, 'design' ) ;
#34 = CYLINDRICAL_SURFACE ( 'NONE', #118, 6.000000000000000888 ) ;
#35 = LOCAL_TIME ( 12, 31, 40.00000000000000000, #196 ) ;
#36 = APPLICATION_PROTOCOL_DEFINITION ( 'international standard', 'config_control_design', 1994, #39 ) ;
#37 = CALENDAR_DATE ( 2023, 12, 2 ) ;
#38 = EDGE_CURVE ( 'NONE', #210, #235, #72, .T. ) ;
#39 = APPLICATION_CONTEXT ( 'configuration controlled 3d designs of mechanical parts and assemblies' ) ;
#40 = DIRECTION ( 'NONE',  ( 1.000000000000000000, 0.000000000000000000, 0.000000000000000000 ) ) ;
#41 = DIRECTION ( 'NONE',  ( -0.000000000000000000, -0.000000000000000000, -1.000000000000000000 ) ) ;
#42 = CARTESIAN_POINT ( 'NONE',  ( 6.000000000000000888, 7.347880794884120722E-16, 5.000000000000000000 ) ) ;
#43 = EDGE_LOOP ( 'NONE', ( #216, #203 ) ) ;
#44 = AXIS2_PLACEMENT_3D ( 'NONE', #124, #171, #102 ) ;
#45 = PERSON_AND_ORGANIZATION ( #131, #79 ) ;
#46 = APPLICATION_PROTOCOL_DEFINITION ( 'international standard', 'config_control_design', 1994, #121 ) ;
#47 = APPROVAL ( #135, 'NEURÈENÝ' ) ;
#48 = CARTESIAN_POINT ( 'NONE',  ( 6.000000000000000888, 7.347880794884120722E-16, 5.000000000000000000 ) ) ;
#49 = CARTESIAN_POINT ( 'NONE',  ( -6.000000000000000888, 0.000000000000000000, 5.000000000000000000 ) ) ;
#50 = EDGE_CURVE ( 'NONE', #148, #93, #127, .T. ) ;
#51 = CARTESIAN_POINT ( 'NONE',  ( 6.000000000000000888, 7.347880794884120722E-16, 0.000000000000000000 ) ) ;
#52 = AXIS2_PLACEMENT_3D ( 'NONE', #207, #189, #141 ) ;
#53 = ORIENTED_EDGE ( 'NONE', *, *, #150, .T. ) ;
#54 = ORIENTED_EDGE ( 'NONE', *, *, #38, .F. ) ;
#55 = LOCAL_TIME ( 12, 31, 40.00000000000000000, #6 ) ;
#56 = PRODUCT ( '4736', '4736', '', ( #179 ) ) ;
#57 = DATE_AND_TIME ( #133, #35 ) ;
#58 = COORDINATED_UNIVERSAL_TIME_OFFSET ( 1, 0, .AHEAD. ) ;
#59 = SECURITY_CLASSIFICATION_LEVEL ( 'unclassified' ) ;
#60 = LINE ( 'NONE', #48, #223 ) ;
#61 = DIRECTION ( 'NONE',  ( 1.000000000000000000, 0.000000000000000000, -0.000000000000000000 ) ) ;
#62 = LOCAL_TIME ( 12, 31, 40.00000000000000000, #58 ) ;
#63 = DIRECTION ( 'NONE',  ( -1.000000000000000000, 0.000000000000000000, 0.000000000000000000 ) ) ;
#64 = DIRECTION ( 'NONE',  ( 1.000000000000000000, 0.000000000000000000, 0.000000000000000000 ) ) ;
#65 = AXIS2_PLACEMENT_3D ( 'NONE', #164, #161, #30 ) ;
#66 = EDGE_LOOP ( 'NONE', ( #250, #239, #146, #163 ) ) ;
#67 = ORIENTED_EDGE ( 'NONE', *, *, #50, .T. ) ;
#68 = MANIFOLD_SOLID_BREP ( 'Pøidat vysunutím3', #194 ) ;
#69 = DIRECTION ( 'NONE',  ( 1.000000000000000000, 0.000000000000000000, 0.000000000000000000 ) ) ;
#70 = CARTESIAN_POINT ( 'NONE',  ( 0.000000000000000000, 0.000000000000000000, 125.0000000000000000 ) ) ;
#71 = DIRECTION ( 'NONE',  ( -0.000000000000000000, -0.000000000000000000, -1.000000000000000000 ) ) ;
#72 = CIRCLE ( 'NONE', #247, 6.000000000000000888 ) ;
#73 = FACE_OUTER_BOUND ( 'NONE', #107, .T. ) ;
#74 = CALENDAR_DATE ( 2023, 12, 2 ) ;
#75 = EDGE_CURVE ( 'NONE', #213, #212, #181, .T. ) ;
#76 = PRODUCT_RELATED_PRODUCT_CATEGORY ( 'detail', '', ( #56 ) ) ;
#77 = PERSON_AND_ORGANIZATION_ROLE ( 'classification_officer' ) ;
#78 = FACE_OUTER_BOUND ( 'NONE', #66, .T. ) ;
#79 = ORGANIZATION ( 'NEURÈENÝ', 'NEURÈENÝ', '' ) ;
#80 = EDGE_CURVE ( 'NONE', #199, #212, #18, .T. ) ;
#81 =( NAMED_UNIT ( * ) SI_UNIT ( $, .STERADIAN. ) SOLID_ANGLE_UNIT ( ) );
#82 =( GEOMETRIC_REPRESENTATION_CONTEXT ( 3 ) GLOBAL_UNCERTAINTY_ASSIGNED_CONTEXT ( ( #251 ) ) GLOBAL_UNIT_ASSIGNED_CONTEXT ( ( #209, #227, #81 ) ) REPRESENTATION_CONTEXT ( 'NONE', 'WORKASPACE' ) );
#83 = ORIENTED_EDGE ( 'NONE', *, *, #184, .T. ) ;
#84 = AXIS2_PLACEMENT_3D ( 'NONE', #119, #100, #7 ) ;
#85 = EDGE_LOOP ( 'NONE', ( #233, #54 ) ) ;
#86 = DIRECTION ( 'NONE',  ( 0.000000000000000000, 0.000000000000000000, 1.000000000000000000 ) ) ;
#87 = APPROVAL_ROLE ( '' ) ;
#88 = CARTESIAN_POINT ( 'NONE',  ( 0.000000000000000000, 0.000000000000000000, 0.000000000000000000 ) ) ;
#89 = DIRECTION ( 'NONE',  ( -1.000000000000000000, 0.000000000000000000, 0.000000000000000000 ) ) ;
#90 = CARTESIAN_POINT ( 'NONE',  ( 3.250000000000000444, 3.980102097228898231E-16, 125.0000000000000000 ) ) ;
#91 = CALENDAR_DATE ( 2023, 12, 2 ) ;
#92 = CC_DESIGN_APPROVAL ( #155, ( #173 ) ) ;
#93 = VERTEX_POINT ( 'NONE', #42 ) ;
#94 = DIRECTION ( 'NONE',  ( 1.000000000000000000, 0.000000000000000000, 0.000000000000000000 ) ) ;
#95 = PERSON_AND_ORGANIZATION ( #131, #79 ) ;
#96 = APPROVAL_STATUS ( 'not_yet_approved' ) ;
#97 = DIRECTION ( 'NONE',  ( 0.000000000000000000, 0.000000000000000000, 1.000000000000000000 ) ) ;
#98 = CIRCLE ( 'NONE', #254, 6.000000000000000888 ) ;
#99 = DIRECTION ( 'NONE',  ( 0.000000000000000000, 0.000000000000000000, 1.000000000000000000 ) ) ;
#100 = DIRECTION ( 'NONE',  ( 0.000000000000000000, 0.000000000000000000, 1.000000000000000000 ) ) ;
#101 = ORIENTED_EDGE ( 'NONE', *, *, #169, .T. ) ;
#102 = DIRECTION ( 'NONE',  ( 1.000000000000000000, 0.000000000000000000, 0.000000000000000000 ) ) ;
#103 = ORIENTED_EDGE ( 'NONE', *, *, #80, .T. ) ;
#104 = APPROVAL_PERSON_ORGANIZATION ( #156, #155, #87 ) ;
#105 = PERSON_AND_ORGANIZATION ( #131, #79 ) ;
#106 = ORIENTED_EDGE ( 'NONE', *, *, #169, .F. ) ;
#107 = EDGE_LOOP ( 'NONE', ( #14, #126, #255, #125 ) ) ;
#108 = PERSON_AND_ORGANIZATION_ROLE ( 'creator' ) ;
#109 = CC_DESIGN_SECURITY_CLASSIFICATION ( #128, ( #173 ) ) ;
#110 = ORIENTED_EDGE ( 'NONE', *, *, #232, .F. ) ;
#111 = CIRCLE ( 'NONE', #10, 6.000000000000000888 ) ;
#112 = CARTESIAN_POINT ( 'NONE',  ( 0.000000000000000000, 0.000000000000000000, 5.000000000000000000 ) ) ;
#113 = DATE_AND_TIME ( #74, #24 ) ;
#114 = APPROVAL ( #96, 'NEURÈENÝ' ) ;
#115 = CC_DESIGN_APPROVAL ( #47, ( #128 ) ) ;
#116 = ORIENTED_EDGE ( 'NONE', *, *, #132, .T. ) ;
#117 = PERSON_AND_ORGANIZATION_ROLE ( 'design_supplier' ) ;
#118 = AXIS2_PLACEMENT_3D ( 'NONE', #159, #11, #63 ) ;
#119 = CARTESIAN_POINT ( 'NONE',  ( 0.000000000000000000, 0.000000000000000000, 5.000000000000000000 ) ) ;
#120 = ADVANCED_FACE ( 'NONE', ( #200 ), #136, .T. ) ;
#121 = APPLICATION_CONTEXT ( 'configuration controlled 3d designs of mechanical parts and assemblies' ) ;
#122 = CC_DESIGN_PERSON_AND_ORGANIZATION_ASSIGNMENT ( #25, #201, ( #173 ) ) ;
#123 = EDGE_LOOP ( 'NONE', ( #183, #2, #16, #53 ) ) ;
#124 = CARTESIAN_POINT ( 'NONE',  ( 0.000000000000000000, 0.000000000000000000, 5.000000000000000000 ) ) ;
#125 = ORIENTED_EDGE ( 'NONE', *, *, #75, .T. ) ;
#126 = ORIENTED_EDGE ( 'NONE', *, *, #184, .F. ) ;
#127 = CIRCLE ( 'NONE', #168, 6.000000000000000888 ) ;
#128 = SECURITY_CLASSIFICATION ( '', '', #59 ) ;
#129 = DIRECTION ( 'NONE',  ( 1.000000000000000000, 0.000000000000000000, 0.000000000000000000 ) ) ;
#130 = DIRECTION ( 'NONE',  ( -0.000000000000000000, -0.000000000000000000, -1.000000000000000000 ) ) ;
#131 = PERSON ( 'NEURÈENÝ', 'NEURÈENÝ', 'NEURÈENÝ', ('NEURÈENÝ'), ('NEURÈENÝ'), ('NEURÈENÝ') ) ;
#132 = EDGE_CURVE ( 'NONE', #93, #148, #111, .T. ) ;
#133 = CALENDAR_DATE ( 2023, 12, 2 ) ;
#134 = CIRCLE ( 'NONE', #52, 3.250000000000000444 ) ;
#135 = APPROVAL_STATUS ( 'not_yet_approved' ) ;
#136 = CYLINDRICAL_SURFACE ( 'NONE', #217, 3.250000000000000444 ) ;
#137 = VECTOR ( 'NONE', #41, 1000.000000000000000 ) ;
#138 = PLANE ( 'NONE',  #214 ) ;
#139 = CARTESIAN_POINT ( 'NONE',  ( 0.000000000000000000, 0.000000000000000000, 5.000000000000000000 ) ) ;
#140 = CARTESIAN_POINT ( 'NONE',  ( -3.250000000000000444, 0.000000000000000000, 5.000000000000000000 ) ) ;
#141 = DIRECTION ( 'NONE',  ( 1.000000000000000000, 0.000000000000000000, 0.000000000000000000 ) ) ;
#142 = CARTESIAN_POINT ( 'NONE',  ( 0.000000000000000000, 0.000000000000000000, 125.0000000000000000 ) ) ;
#143 = EDGE_CURVE ( 'NONE', #93, #210, #60, .T. ) ;
#144 = CARTESIAN_POINT ( 'NONE',  ( 0.000000000000000000, 0.000000000000000000, 5.000000000000000000 ) ) ;
#145 = DATE_AND_TIME ( #37, #237 ) ;
#146 = ORIENTED_EDGE ( 'NONE', *, *, #38, .T. ) ;
#147 = APPROVAL_PERSON_ORGANIZATION ( #95, #114, #182 ) ;
#148 = VERTEX_POINT ( 'NONE', #49 ) ;
#149 = ORIENTED_EDGE ( 'NONE', *, *, #188, .T. ) ;
#150 = EDGE_CURVE ( 'NONE', #235, #210, #98, .T. ) ;
#151 = DIRECTION ( 'NONE',  ( 0.000000000000000000, 0.000000000000000000, 1.000000000000000000 ) ) ;
#152 = FACE_OUTER_BOUND ( 'NONE', #85, .T. ) ;
#153 = FACE_BOUND ( 'NONE', #43, .T. ) ;
#154 = CALENDAR_DATE ( 2023, 12, 2 ) ;
#155 = APPROVAL ( #220, 'NEURÈENÝ' ) ;
#156 = PERSON_AND_ORGANIZATION ( #131, #79 ) ;
#157 = DIRECTION ( 'NONE',  ( -1.000000000000000000, 0.000000000000000000, 0.000000000000000000 ) ) ;
#158 = VECTOR ( 'NONE', #71, 1000.000000000000000 ) ;
#159 = CARTESIAN_POINT ( 'NONE',  ( 0.000000000000000000, 0.000000000000000000, 5.000000000000000000 ) ) ;
#160 = APPROVAL_PERSON_ORGANIZATION ( #242, #47, #202 ) ;
#161 = DIRECTION ( 'NONE',  ( 0.000000000000000000, 0.000000000000000000, 1.000000000000000000 ) ) ;
#162 = DIRECTION ( 'NONE',  ( -0.000000000000000000, -0.000000000000000000, -1.000000000000000000 ) ) ;
#163 = ORIENTED_EDGE ( 'NONE', *, *, #198, .F. ) ;
#164 = CARTESIAN_POINT ( 'NONE',  ( 0.000000000000000000, 0.000000000000000000, 125.0000000000000000 ) ) ;
#165 = CARTESIAN_POINT ( 'NONE',  ( 0.000000000000000000, 0.000000000000000000, 0.000000000000000000 ) ) ;
#166 = AXIS2_PLACEMENT_3D ( 'NONE', #144, #162, #187 ) ;
#167 = PRODUCT_DEFINITION_SHAPE ( 'NONE', 'NONE',  #193 ) ;
#168 = AXIS2_PLACEMENT_3D ( 'NONE', #112, #238, #129 ) ;
#169 = EDGE_CURVE ( 'NONE', #199, #175, #134, .T. ) ;
#170 = EDGE_LOOP ( 'NONE', ( #83, #101 ) ) ;
#171 = DIRECTION ( 'NONE',  ( 0.000000000000000000, 0.000000000000000000, 1.000000000000000000 ) ) ;
#172 = CC_DESIGN_DATE_AND_TIME_ASSIGNMENT ( #113, #244, ( #128 ) ) ;
#173 = PRODUCT_DEFINITION_FORMATION_WITH_SPECIFIED_SOURCE ( 'LIBOVOLNÝ', '', #56, .NOT_KNOWN. ) ;
#174 = CARTESIAN_POINT ( 'NONE',  ( 3.250000000000000444, 3.980102097228898231E-16, 125.0000000000000000 ) ) ;
#175 = VERTEX_POINT ( 'NONE', #248 ) ;
#176 = DATE_TIME_ROLE ( 'creation_date' ) ;
#177 = PERSON_AND_ORGANIZATION ( #131, #79 ) ;
#178 = DATE_AND_TIME ( #91, #62 ) ;
#179 = MECHANICAL_CONTEXT ( 'NONE', #39, 'mechanical' ) ;
#180 = CARTESIAN_POINT ( 'NONE',  ( -6.000000000000000888, 0.000000000000000000, 5.000000000000000000 ) ) ;
#181 = CIRCLE ( 'NONE', #20, 3.250000000000000444 ) ;
#182 = APPROVAL_ROLE ( '' ) ;
#183 = ORIENTED_EDGE ( 'NONE', *, *, #143, .F. ) ;
#184 = EDGE_CURVE ( 'NONE', #175, #199, #234, .T. ) ;
#185 = CARTESIAN_POINT ( 'NONE',  ( 3.250000000000000444, 3.980102097228898231E-16, 5.000000000000000000 ) ) ;
#186 = DIRECTION ( 'NONE',  ( -0.000000000000000000, -0.000000000000000000, -1.000000000000000000 ) ) ;
#187 = DIRECTION ( 'NONE',  ( -1.000000000000000000, 0.000000000000000000, 0.000000000000000000 ) ) ;
#188 = EDGE_CURVE ( 'NONE', #212, #213, #31, .T. ) ;
#189 = DIRECTION ( 'NONE',  ( 0.000000000000000000, 0.000000000000000000, 1.000000000000000000 ) ) ;
#190 = CYLINDRICAL_SURFACE ( 'NONE', #166, 6.000000000000000888 ) ;
#191 = COORDINATED_UNIVERSAL_TIME_OFFSET ( 1, 0, .AHEAD. ) ;
#192 = ADVANCED_BREP_SHAPE_REPRESENTATION ( '4736', ( #68, #245 ), #82 ) ;
#193 = PRODUCT_DEFINITION ( 'NEZNÁMÝ', '', #173, #33 ) ;
#194 = CLOSED_SHELL ( 'NONE', ( #120, #241, #252, #204, #19, #15, #211 ) ) ;
#195 = LINE ( 'NONE', #180, #137 ) ;
#196 = COORDINATED_UNIVERSAL_TIME_OFFSET ( 1, 0, .AHEAD. ) ;
#197 = EDGE_LOOP ( 'NONE', ( #106, #103, #149, #110 ) ) ;
#198 = EDGE_CURVE ( 'NONE', #148, #235, #195, .T. ) ;
#199 = VERTEX_POINT ( 'NONE', #90 ) ;
#200 = FACE_OUTER_BOUND ( 'NONE', #197, .T. ) ;
#201 = PERSON_AND_ORGANIZATION_ROLE ( 'creator' ) ;
#202 = APPROVAL_ROLE ( '' ) ;
#203 = ORIENTED_EDGE ( 'NONE', *, *, #188, .F. ) ;
#204 = ADVANCED_FACE ( 'NONE', ( #153, #23 ), #240, .T. ) ;
#205 = FACE_OUTER_BOUND ( 'NONE', #170, .T. ) ;
#206 = CC_DESIGN_PERSON_AND_ORGANIZATION_ASSIGNMENT ( #105, #108, ( #193 ) ) ;
#207 = CARTESIAN_POINT ( 'NONE',  ( 0.000000000000000000, 0.000000000000000000, 125.0000000000000000 ) ) ;
#208 = DIRECTION ( 'NONE',  ( 0.000000000000000000, 0.000000000000000000, 1.000000000000000000 ) ) ;
#209 =( LENGTH_UNIT ( ) NAMED_UNIT ( * ) SI_UNIT ( .MILLI., .METRE. ) );
#210 = VERTEX_POINT ( 'NONE', #51 ) ;
#211 = ADVANCED_FACE ( 'NONE', ( #205 ), #138, .T. ) ;
#212 = VERTEX_POINT ( 'NONE', #185 ) ;
#213 = VERTEX_POINT ( 'NONE', #140 ) ;
#214 = AXIS2_PLACEMENT_3D ( 'NONE', #32, #99, #61 ) ;
#215 = CC_DESIGN_DATE_AND_TIME_ASSIGNMENT ( #57, #176, ( #193 ) ) ;
#216 = ORIENTED_EDGE ( 'NONE', *, *, #75, .F. ) ;
#217 = AXIS2_PLACEMENT_3D ( 'NONE', #142, #27, #157 ) ;
#218 = PLANE ( 'NONE',  #5 ) ;
#219 = DIRECTION ( 'NONE',  ( 1.000000000000000000, 0.000000000000000000, 0.000000000000000000 ) ) ;
#220 = APPROVAL_STATUS ( 'not_yet_approved' ) ;
#221 = DIRECTION ( 'NONE',  ( 1.000000000000000000, 0.000000000000000000, -0.000000000000000000 ) ) ;
#222 = CYLINDRICAL_SURFACE ( 'NONE', #243, 3.250000000000000444 ) ;
#223 = VECTOR ( 'NONE', #186, 1000.000000000000000 ) ;
#224 = PERSON_AND_ORGANIZATION ( #131, #79 ) ;
#225 = CARTESIAN_POINT ( 'NONE',  ( -3.250000000000000444, 0.000000000000000000, 125.0000000000000000 ) ) ;
#226 = APPROVAL_DATE_TIME ( #3, #47 ) ;
#227 =( NAMED_UNIT ( * ) PLANE_ANGLE_UNIT ( ) SI_UNIT ( $, .RADIAN. ) );
#228 = APPROVAL_DATE_TIME ( #145, #114 ) ;
#229 = CARTESIAN_POINT ( 'NONE',  ( -6.000000000000000888, 0.000000000000000000, 0.000000000000000000 ) ) ;
#230 = CC_DESIGN_PERSON_AND_ORGANIZATION_ASSIGNMENT ( #177, #77, ( #128 ) ) ;
#231 = CC_DESIGN_APPROVAL ( #114, ( #193 ) ) ;
#232 = EDGE_CURVE ( 'NONE', #175, #213, #9, .T. ) ;
#233 = ORIENTED_EDGE ( 'NONE', *, *, #150, .F. ) ;
#234 = CIRCLE ( 'NONE', #65, 3.250000000000000444 ) ;
#235 = VERTEX_POINT ( 'NONE', #229 ) ;
#236 = EDGE_LOOP ( 'NONE', ( #67, #116 ) ) ;
#237 = LOCAL_TIME ( 12, 31, 40.00000000000000000, #191 ) ;
#238 = DIRECTION ( 'NONE',  ( 0.000000000000000000, 0.000000000000000000, 1.000000000000000000 ) ) ;
#239 = ORIENTED_EDGE ( 'NONE', *, *, #143, .T. ) ;
#240 = PLANE ( 'NONE',  #84 ) ;
#241 = ADVANCED_FACE ( 'NONE', ( #78 ), #190, .T. ) ;
#242 = PERSON_AND_ORGANIZATION ( #131, #79 ) ;
#243 = AXIS2_PLACEMENT_3D ( 'NONE', #70, #130, #89 ) ;
#244 = DATE_TIME_ROLE ( 'classification_date' ) ;
#245 = AXIS2_PLACEMENT_3D ( 'NONE', #165, #208, #94 ) ;
#246 = SHAPE_DEFINITION_REPRESENTATION ( #167, #192 ) ;
#247 = AXIS2_PLACEMENT_3D ( 'NONE', #17, #86, #69 ) ;
#248 = CARTESIAN_POINT ( 'NONE',  ( -3.250000000000000444, 0.000000000000000000, 125.0000000000000000 ) ) ;
#249 = DIRECTION ( 'NONE',  ( -0.000000000000000000, -0.000000000000000000, -1.000000000000000000 ) ) ;
#250 = ORIENTED_EDGE ( 'NONE', *, *, #132, .F. ) ;
#251 = UNCERTAINTY_MEASURE_WITH_UNIT (LENGTH_MEASURE( 1.000000000000000082E-05 ), #209, 'distance_accuracy_value', 'NONE');
#252 = ADVANCED_FACE ( 'NONE', ( #12 ), #34, .T. ) ;
#253 = CC_DESIGN_PERSON_AND_ORGANIZATION_ASSIGNMENT ( #45, #117, ( #173 ) ) ;
#254 = AXIS2_PLACEMENT_3D ( 'NONE', #13, #97, #64 ) ;
#255 = ORIENTED_EDGE ( 'NONE', *, *, #232, .T. ) ;
ENDSEC;
END-ISO-10303-21;
