ISO-10303-21;
HEADER;
FILE_DESCRIPTION (( 'STEP AP203' ),
    '1' );
FILE_NAME ('4a5c.STEP',
    '2023-02-12T11:08:03',
    ( '' ),
    ( '' ),
    'SwSTEP 2.0',
    'SolidWorks 2019',
    '' );
FILE_SCHEMA (( 'CONFIG_CONTROL_DESIGN' ));
ENDSEC;

DATA;
#1 = PERSON_AND_ORGANIZATION_ROLE ( 'classification_officer' ) ;
#2 = EDGE_CURVE ( 'NONE', #210, #226, #32, .T. ) ;
#3 = CYLINDRICAL_SURFACE ( 'NONE', #77, 7.000000000000000000 ) ;
#4 = DATE_AND_TIME ( #5, #243 ) ;
#5 = CALENDAR_DATE ( 2023, 12, 2 ) ;
#6 = CALENDAR_DATE ( 2023, 12, 2 ) ;
#7 = APPLICATION_PROTOCOL_DEFINITION ( 'international standard', 'config_control_design', 1994, #118 ) ;
#8 = DATE_TIME_ROLE ( 'classification_date' ) ;
#9 = APPROVAL ( #200, 'NEURÈENÝ' ) ;
#10 = VERTEX_POINT ( 'NONE', #229 ) ;
#11 = ADVANCED_FACE ( 'NONE', ( #36, #154 ), #38, .T. ) ;
#12 = EDGE_LOOP ( 'NONE', ( #227, #74, #139, #60 ) ) ;
#13 = CIRCLE ( 'NONE', #158, 4.500000000000000000 ) ;
#14 = ORIENTED_EDGE ( 'NONE', *, *, #72, .T. ) ;
#15 = LOCAL_TIME ( 12, 8, 3.000000000000000000, #30 ) ;
#16 = ORIENTED_EDGE ( 'NONE', *, *, #203, .F. ) ;
#17 = DIRECTION ( 'NONE',  ( 0.000000000000000000, 0.000000000000000000, 1.000000000000000000 ) ) ;
#18 = EDGE_CURVE ( 'NONE', #226, #210, #128, .T. ) ;
#19 = ORIENTED_EDGE ( 'NONE', *, *, #203, .T. ) ;
#20 = CARTESIAN_POINT ( 'NONE',  ( 4.500000000000000000, 5.510910596163087583E-16, 400.0000000000000000 ) ) ;
#21 = ADVANCED_BREP_SHAPE_REPRESENTATION ( '4a5c', ( #219, #41 ), #247 ) ;
#22 = CARTESIAN_POINT ( 'NONE',  ( -7.000000000000000000, 0.000000000000000000, 5.000000000000000000 ) ) ;
#23 = AXIS2_PLACEMENT_3D ( 'NONE', #92, #248, #206 ) ;
#24 = ORIENTED_EDGE ( 'NONE', *, *, #152, .F. ) ;
#25 = CARTESIAN_POINT ( 'NONE',  ( 0.000000000000000000, 0.000000000000000000, 5.000000000000000000 ) ) ;
#26 = CC_DESIGN_SECURITY_CLASSIFICATION ( #52, ( #159 ) ) ;
#27 = CARTESIAN_POINT ( 'NONE',  ( -7.000000000000000000, 0.000000000000000000, 0.000000000000000000 ) ) ;
#28 = EDGE_CURVE ( 'NONE', #133, #57, #114, .T. ) ;
#29 = DIRECTION ( 'NONE',  ( -1.000000000000000000, 0.000000000000000000, 0.000000000000000000 ) ) ;
#30 = COORDINATED_UNIVERSAL_TIME_OFFSET ( 1, 0, .AHEAD. ) ;
#31 = PERSON_AND_ORGANIZATION ( #137, #196 ) ;
#32 = CIRCLE ( 'NONE', #183, 7.000000000000000000 ) ;
#33 = EDGE_CURVE ( 'NONE', #10, #172, #101, .T. ) ;
#34 = DATE_AND_TIME ( #107, #91 ) ;
#35 = PRODUCT_RELATED_PRODUCT_CATEGORY ( 'detail', '', ( #171 ) ) ;
#36 = FACE_BOUND ( 'NONE', #39, .T. ) ;
#37 = VERTEX_POINT ( 'NONE', #99 ) ;
#38 = PLANE ( 'NONE',  #23 ) ;
#39 = EDGE_LOOP ( 'NONE', ( #245, #208 ) ) ;
#40 = DIRECTION ( 'NONE',  ( -0.000000000000000000, -0.000000000000000000, -1.000000000000000000 ) ) ;
#41 = AXIS2_PLACEMENT_3D ( 'NONE', #214, #117, #254 ) ;
#42 = LINE ( 'NONE', #116, #124 ) ;
#43 = CARTESIAN_POINT ( 'NONE',  ( 4.500000000000000000, 5.510910596163087583E-16, 400.0000000000000000 ) ) ;
#44 = MECHANICAL_CONTEXT ( 'NONE', #118, 'mechanical' ) ;
#45 = FACE_OUTER_BOUND ( 'NONE', #190, .T. ) ;
#46 = DIRECTION ( 'NONE',  ( -0.000000000000000000, -0.000000000000000000, -1.000000000000000000 ) ) ;
#47 = CLOSED_SHELL ( 'NONE', ( #157, #147, #195, #11, #204, #191, #132 ) ) ;
#48 = DIRECTION ( 'NONE',  ( -1.000000000000000000, 0.000000000000000000, 0.000000000000000000 ) ) ;
#49 = APPROVAL_STATUS ( 'not_yet_approved' ) ;
#50 = VECTOR ( 'NONE', #46, 1000.000000000000000 ) ;
#51 = EDGE_CURVE ( 'NONE', #75, #37, #140, .T. ) ;
#52 = SECURITY_CLASSIFICATION ( '', '', #176 ) ;
#53 = COORDINATED_UNIVERSAL_TIME_OFFSET ( 1, 0, .AHEAD. ) ;
#54 = DIRECTION ( 'NONE',  ( 1.000000000000000000, 0.000000000000000000, 0.000000000000000000 ) ) ;
#55 = EDGE_LOOP ( 'NONE', ( #85, #19, #78, #148 ) ) ;
#56 = AXIS2_PLACEMENT_3D ( 'NONE', #153, #17, #231 ) ;
#57 = VERTEX_POINT ( 'NONE', #43 ) ;
#58 = APPROVAL_PERSON_ORGANIZATION ( #224, #81, #129 ) ;
#59 = CYLINDRICAL_SURFACE ( 'NONE', #251, 4.500000000000000000 ) ;
#60 = ORIENTED_EDGE ( 'NONE', *, *, #33, .T. ) ;
#61 =( LENGTH_UNIT ( ) NAMED_UNIT ( * ) SI_UNIT ( .MILLI., .METRE. ) );
#62 = CC_DESIGN_PERSON_AND_ORGANIZATION_ASSIGNMENT ( #70, #222, ( #159 ) ) ;
#63 = AXIS2_PLACEMENT_3D ( 'NONE', #192, #82, #142 ) ;
#64 = DIRECTION ( 'NONE',  ( -0.000000000000000000, -0.000000000000000000, -1.000000000000000000 ) ) ;
#65 = DIRECTION ( 'NONE',  ( 1.000000000000000000, 0.000000000000000000, 0.000000000000000000 ) ) ;
#66 = CARTESIAN_POINT ( 'NONE',  ( 0.000000000000000000, 0.000000000000000000, 400.0000000000000000 ) ) ;
#67 = FACE_OUTER_BOUND ( 'NONE', #246, .T. ) ;
#68 = APPROVAL_PERSON_ORGANIZATION ( #31, #199, #164 ) ;
#69 = DATE_AND_TIME ( #163, #15 ) ;
#70 = PERSON_AND_ORGANIZATION ( #137, #196 ) ;
#71 = AXIS2_PLACEMENT_3D ( 'NONE', #102, #237, #216 ) ;
#72 = EDGE_CURVE ( 'NONE', #57, #133, #13, .T. ) ;
#73 = AXIS2_PLACEMENT_3D ( 'NONE', #151, #79, #65 ) ;
#74 = ORIENTED_EDGE ( 'NONE', *, *, #28, .F. ) ;
#75 = VERTEX_POINT ( 'NONE', #27 ) ;
#76 = UNCERTAINTY_MEASURE_WITH_UNIT (LENGTH_MEASURE( 1.000000000000000082E-05 ), #61, 'distance_accuracy_value', 'NONE');
#77 = AXIS2_PLACEMENT_3D ( 'NONE', #161, #64, #29 ) ;
#78 = ORIENTED_EDGE ( 'NONE', *, *, #152, .T. ) ;
#79 = DIRECTION ( 'NONE',  ( 0.000000000000000000, 0.000000000000000000, 1.000000000000000000 ) ) ;
#80 = FACE_OUTER_BOUND ( 'NONE', #169, .T. ) ;
#81 = APPROVAL ( #49, 'NEURÈENÝ' ) ;
#82 = DIRECTION ( 'NONE',  ( 0.000000000000000000, 0.000000000000000000, 1.000000000000000000 ) ) ;
#83 = CC_DESIGN_APPROVAL ( #199, ( #159 ) ) ;
#84 = DIRECTION ( 'NONE',  ( 1.000000000000000000, 0.000000000000000000, 0.000000000000000000 ) ) ;
#85 = ORIENTED_EDGE ( 'NONE', *, *, #18, .F. ) ;
#86 = FACE_OUTER_BOUND ( 'NONE', #12, .T. ) ;
#87 = APPROVAL_DATE_TIME ( #241, #81 ) ;
#88 = PERSON_AND_ORGANIZATION ( #137, #196 ) ;
#89 = APPROVAL_DATE_TIME ( #4, #199 ) ;
#90 = CALENDAR_DATE ( 2023, 12, 2 ) ;
#91 = LOCAL_TIME ( 12, 8, 3.000000000000000000, #53 ) ;
#92 = CARTESIAN_POINT ( 'NONE',  ( 0.000000000000000000, 0.000000000000000000, 5.000000000000000000 ) ) ;
#93 = DIRECTION ( 'NONE',  ( 0.000000000000000000, 0.000000000000000000, 1.000000000000000000 ) ) ;
#94 = VECTOR ( 'NONE', #125, 1000.000000000000000 ) ;
#95 = EDGE_LOOP ( 'NONE', ( #138, #239, #250, #170 ) ) ;
#96 = ORIENTED_EDGE ( 'NONE', *, *, #2, .T. ) ;
#97 = DESIGN_CONTEXT ( 'detailed design', #193, 'design' ) ;
#98 = CC_DESIGN_APPROVAL ( #81, ( #52 ) ) ;
#99 = CARTESIAN_POINT ( 'NONE',  ( 7.000000000000000000, 8.572527594031473190E-16, 0.000000000000000000 ) ) ;
#100 = LINE ( 'NONE', #22, #109 ) ;
#101 = CIRCLE ( 'NONE', #73, 4.500000000000000000 ) ;
#102 = CARTESIAN_POINT ( 'NONE',  ( 0.000000000000000000, 0.000000000000000000, 0.000000000000000000 ) ) ;
#103 = ORIENTED_EDGE ( 'NONE', *, *, #209, .T. ) ;
#104 = AXIS2_PLACEMENT_3D ( 'NONE', #197, #220, #255 ) ;
#105 = APPROVAL_STATUS ( 'not_yet_approved' ) ;
#106 = CARTESIAN_POINT ( 'NONE',  ( 7.000000000000000000, 8.572527594031473190E-16, 5.000000000000000000 ) ) ;
#107 = CALENDAR_DATE ( 2023, 12, 2 ) ;
#108 = COORDINATED_UNIVERSAL_TIME_OFFSET ( 1, 0, .AHEAD. ) ;
#109 = VECTOR ( 'NONE', #177, 1000.000000000000000 ) ;
#110 = DIRECTION ( 'NONE',  ( 0.000000000000000000, 0.000000000000000000, 1.000000000000000000 ) ) ;
#111 = AXIS2_PLACEMENT_3D ( 'NONE', #185, #110, #228 ) ;
#112 = LOCAL_TIME ( 12, 8, 3.000000000000000000, #242 ) ;
#113 = CC_DESIGN_PERSON_AND_ORGANIZATION_ASSIGNMENT ( #143, #146, ( #171 ) ) ;
#114 = CIRCLE ( 'NONE', #178, 4.500000000000000000 ) ;
#115 = PLANE ( 'NONE',  #63 ) ;
#116 = CARTESIAN_POINT ( 'NONE',  ( 7.000000000000000000, 8.572527594031473190E-16, 5.000000000000000000 ) ) ;
#117 = DIRECTION ( 'NONE',  ( 0.000000000000000000, 0.000000000000000000, 1.000000000000000000 ) ) ;
#118 = APPLICATION_CONTEXT ( 'configuration controlled 3d designs of mechanical parts and assemblies' ) ;
#119 = LINE ( 'NONE', #20, #50 ) ;
#120 = CARTESIAN_POINT ( 'NONE',  ( -4.500000000000000000, 0.000000000000000000, 400.0000000000000000 ) ) ;
#121 = CC_DESIGN_PERSON_AND_ORGANIZATION_ASSIGNMENT ( #88, #238, ( #240 ) ) ;
#122 = CARTESIAN_POINT ( 'NONE',  ( 0.000000000000000000, 0.000000000000000000, 400.0000000000000000 ) ) ;
#123 = PERSON_AND_ORGANIZATION ( #137, #196 ) ;
#124 = VECTOR ( 'NONE', #194, 1000.000000000000000 ) ;
#125 = DIRECTION ( 'NONE',  ( -0.000000000000000000, -0.000000000000000000, -1.000000000000000000 ) ) ;
#126 = CARTESIAN_POINT ( 'NONE',  ( 0.000000000000000000, 0.000000000000000000, 5.000000000000000000 ) ) ;
#127 = EDGE_CURVE ( 'NONE', #57, #172, #119, .T. ) ;
#128 = CIRCLE ( 'NONE', #111, 7.000000000000000000 ) ;
#129 = APPROVAL_ROLE ( '' ) ;
#130 = CC_DESIGN_APPROVAL ( #9, ( #240 ) ) ;
#131 = SHAPE_DEFINITION_REPRESENTATION ( #189, #21 ) ;
#132 = ADVANCED_FACE ( 'NONE', ( #67 ), #156, .T. ) ;
#133 = VERTEX_POINT ( 'NONE', #252 ) ;
#134 = ORIENTED_EDGE ( 'NONE', *, *, #28, .T. ) ;
#135 = EDGE_LOOP ( 'NONE', ( #96, #201 ) ) ;
#136 = AXIS2_PLACEMENT_3D ( 'NONE', #126, #198, #150 ) ;
#137 = PERSON ( 'NEURÈENÝ', 'NEURÈENÝ', 'NEURÈENÝ', ('NEURÈENÝ'), ('NEURÈENÝ'), ('NEURÈENÝ') ) ;
#138 = ORIENTED_EDGE ( 'NONE', *, *, #72, .F. ) ;
#139 = ORIENTED_EDGE ( 'NONE', *, *, #213, .T. ) ;
#140 = CIRCLE ( 'NONE', #71, 7.000000000000000000 ) ;
#141 = DIRECTION ( 'NONE',  ( 0.000000000000000000, 0.000000000000000000, 1.000000000000000000 ) ) ;
#142 = DIRECTION ( 'NONE',  ( 1.000000000000000000, 0.000000000000000000, -0.000000000000000000 ) ) ;
#143 = PERSON_AND_ORGANIZATION ( #137, #196 ) ;
#144 = FACE_OUTER_BOUND ( 'NONE', #55, .T. ) ;
#145 = PERSON_AND_ORGANIZATION ( #137, #196 ) ;
#146 = PERSON_AND_ORGANIZATION_ROLE ( 'design_owner' ) ;
#147 = ADVANCED_FACE ( 'NONE', ( #144 ), #221, .T. ) ;
#148 = ORIENTED_EDGE ( 'NONE', *, *, #209, .F. ) ;
#149 = DIRECTION ( 'NONE',  ( 0.000000000000000000, 0.000000000000000000, 1.000000000000000000 ) ) ;
#150 = DIRECTION ( 'NONE',  ( -1.000000000000000000, 0.000000000000000000, 0.000000000000000000 ) ) ;
#151 = CARTESIAN_POINT ( 'NONE',  ( 0.000000000000000000, 0.000000000000000000, 5.000000000000000000 ) ) ;
#152 = EDGE_CURVE ( 'NONE', #37, #75, #207, .T. ) ;
#153 = CARTESIAN_POINT ( 'NONE',  ( 0.000000000000000000, 0.000000000000000000, 0.000000000000000000 ) ) ;
#154 = FACE_OUTER_BOUND ( 'NONE', #135, .T. ) ;
#155 = CC_DESIGN_PERSON_AND_ORGANIZATION_ASSIGNMENT ( #202, #182, ( #159 ) ) ;
#156 = PLANE ( 'NONE',  #186 ) ;
#157 = ADVANCED_FACE ( 'NONE', ( #249 ), #59, .T. ) ;
#158 = AXIS2_PLACEMENT_3D ( 'NONE', #66, #141, #218 ) ;
#159 = PRODUCT_DEFINITION_FORMATION_WITH_SPECIFIED_SOURCE ( 'LIBOVOLNÝ', '', #171, .NOT_KNOWN. ) ;
#160 = ORIENTED_EDGE ( 'NONE', *, *, #51, .F. ) ;
#161 = CARTESIAN_POINT ( 'NONE',  ( 0.000000000000000000, 0.000000000000000000, 5.000000000000000000 ) ) ;
#162 = DIRECTION ( 'NONE',  ( 1.000000000000000000, 0.000000000000000000, -0.000000000000000000 ) ) ;
#163 = CALENDAR_DATE ( 2023, 12, 2 ) ;
#164 = APPROVAL_ROLE ( '' ) ;
#165 = DATE_AND_TIME ( #6, #205 ) ;
#166 = COORDINATED_UNIVERSAL_TIME_OFFSET ( 1, 0, .AHEAD. ) ;
#167 = ORIENTED_EDGE ( 'NONE', *, *, #2, .F. ) ;
#168 = CARTESIAN_POINT ( 'NONE',  ( 0.000000000000000000, 0.000000000000000000, 5.000000000000000000 ) ) ;
#169 = EDGE_LOOP ( 'NONE', ( #16, #167, #103, #232 ) ) ;
#170 = ORIENTED_EDGE ( 'NONE', *, *, #213, .F. ) ;
#171 = PRODUCT ( '4a5c', '4a5c', '', ( #44 ) ) ;
#172 = VERTEX_POINT ( 'NONE', #253 ) ;
#173 = DIRECTION ( 'NONE',  ( 0.000000000000000000, 0.000000000000000000, 1.000000000000000000 ) ) ;
#174 = DIRECTION ( 'NONE',  ( 0.000000000000000000, 0.000000000000000000, 1.000000000000000000 ) ) ;
#175 = CARTESIAN_POINT ( 'NONE',  ( -7.000000000000000000, 0.000000000000000000, 5.000000000000000000 ) ) ;
#176 = SECURITY_CLASSIFICATION_LEVEL ( 'unclassified' ) ;
#177 = DIRECTION ( 'NONE',  ( -0.000000000000000000, -0.000000000000000000, -1.000000000000000000 ) ) ;
#178 = AXIS2_PLACEMENT_3D ( 'NONE', #188, #93, #184 ) ;
#179 = APPROVAL_ROLE ( '' ) ;
#180 = APPLICATION_PROTOCOL_DEFINITION ( 'international standard', 'config_control_design', 1994, #193 ) ;
#181 = CC_DESIGN_DATE_AND_TIME_ASSIGNMENT ( #34, #225, ( #240 ) ) ;
#182 = PERSON_AND_ORGANIZATION_ROLE ( 'design_supplier' ) ;
#183 = AXIS2_PLACEMENT_3D ( 'NONE', #168, #149, #54 ) ;
#184 = DIRECTION ( 'NONE',  ( 1.000000000000000000, 0.000000000000000000, 0.000000000000000000 ) ) ;
#185 = CARTESIAN_POINT ( 'NONE',  ( 0.000000000000000000, 0.000000000000000000, 5.000000000000000000 ) ) ;
#186 = AXIS2_PLACEMENT_3D ( 'NONE', #122, #173, #162 ) ;
#187 = CIRCLE ( 'NONE', #236, 4.500000000000000000 ) ;
#188 = CARTESIAN_POINT ( 'NONE',  ( 0.000000000000000000, 0.000000000000000000, 400.0000000000000000 ) ) ;
#189 = PRODUCT_DEFINITION_SHAPE ( 'NONE', 'NONE',  #240 ) ;
#190 = EDGE_LOOP ( 'NONE', ( #160, #24 ) ) ;
#191 = ADVANCED_FACE ( 'NONE', ( #86 ), #215, .T. ) ;
#192 = CARTESIAN_POINT ( 'NONE',  ( 0.000000000000000000, 0.000000000000000000, 0.000000000000000000 ) ) ;
#193 = APPLICATION_CONTEXT ( 'configuration controlled 3d designs of mechanical parts and assemblies' ) ;
#194 = DIRECTION ( 'NONE',  ( -0.000000000000000000, -0.000000000000000000, -1.000000000000000000 ) ) ;
#195 = ADVANCED_FACE ( 'NONE', ( #80 ), #3, .T. ) ;
#196 = ORGANIZATION ( 'NEURÈENÝ', 'NEURÈENÝ', '' ) ;
#197 = CARTESIAN_POINT ( 'NONE',  ( 0.000000000000000000, 0.000000000000000000, 400.0000000000000000 ) ) ;
#198 = DIRECTION ( 'NONE',  ( -0.000000000000000000, -0.000000000000000000, -1.000000000000000000 ) ) ;
#199 = APPROVAL ( #105, 'NEURÈENÝ' ) ;
#200 = APPROVAL_STATUS ( 'not_yet_approved' ) ;
#201 = ORIENTED_EDGE ( 'NONE', *, *, #18, .T. ) ;
#202 = PERSON_AND_ORGANIZATION ( #137, #196 ) ;
#203 = EDGE_CURVE ( 'NONE', #226, #37, #42, .T. ) ;
#204 = ADVANCED_FACE ( 'NONE', ( #45 ), #115, .F. ) ;
#205 = LOCAL_TIME ( 12, 8, 3.000000000000000000, #166 ) ;
#206 = DIRECTION ( 'NONE',  ( 1.000000000000000000, 0.000000000000000000, -0.000000000000000000 ) ) ;
#207 = CIRCLE ( 'NONE', #56, 7.000000000000000000 ) ;
#208 = ORIENTED_EDGE ( 'NONE', *, *, #233, .F. ) ;
#209 = EDGE_CURVE ( 'NONE', #210, #75, #100, .T. ) ;
#210 = VERTEX_POINT ( 'NONE', #175 ) ;
#211 = CARTESIAN_POINT ( 'NONE',  ( 0.000000000000000000, 0.000000000000000000, 400.0000000000000000 ) ) ;
#212 =( NAMED_UNIT ( * ) PLANE_ANGLE_UNIT ( ) SI_UNIT ( $, .RADIAN. ) );
#213 = EDGE_CURVE ( 'NONE', #133, #10, #234, .T. ) ;
#214 = CARTESIAN_POINT ( 'NONE',  ( 0.000000000000000000, 0.000000000000000000, 0.000000000000000000 ) ) ;
#215 = CYLINDRICAL_SURFACE ( 'NONE', #104, 4.500000000000000000 ) ;
#216 = DIRECTION ( 'NONE',  ( 1.000000000000000000, 0.000000000000000000, 0.000000000000000000 ) ) ;
#217 =( NAMED_UNIT ( * ) SI_UNIT ( $, .STERADIAN. ) SOLID_ANGLE_UNIT ( ) );
#218 = DIRECTION ( 'NONE',  ( 1.000000000000000000, 0.000000000000000000, 0.000000000000000000 ) ) ;
#219 = MANIFOLD_SOLID_BREP ( 'Pøidat vysunutím3', #47 ) ;
#220 = DIRECTION ( 'NONE',  ( -0.000000000000000000, -0.000000000000000000, -1.000000000000000000 ) ) ;
#221 = CYLINDRICAL_SURFACE ( 'NONE', #136, 7.000000000000000000 ) ;
#222 = PERSON_AND_ORGANIZATION_ROLE ( 'creator' ) ;
#223 = APPROVAL_PERSON_ORGANIZATION ( #145, #9, #179 ) ;
#224 = PERSON_AND_ORGANIZATION ( #137, #196 ) ;
#225 = DATE_TIME_ROLE ( 'creation_date' ) ;
#226 = VERTEX_POINT ( 'NONE', #106 ) ;
#227 = ORIENTED_EDGE ( 'NONE', *, *, #127, .F. ) ;
#228 = DIRECTION ( 'NONE',  ( 1.000000000000000000, 0.000000000000000000, 0.000000000000000000 ) ) ;
#229 = CARTESIAN_POINT ( 'NONE',  ( -4.500000000000000000, 0.000000000000000000, 5.000000000000000000 ) ) ;
#230 = CC_DESIGN_DATE_AND_TIME_ASSIGNMENT ( #165, #8, ( #52 ) ) ;
#231 = DIRECTION ( 'NONE',  ( 1.000000000000000000, 0.000000000000000000, 0.000000000000000000 ) ) ;
#232 = ORIENTED_EDGE ( 'NONE', *, *, #51, .T. ) ;
#233 = EDGE_CURVE ( 'NONE', #172, #10, #187, .T. ) ;
#234 = LINE ( 'NONE', #120, #94 ) ;
#235 = CC_DESIGN_PERSON_AND_ORGANIZATION_ASSIGNMENT ( #123, #1, ( #52 ) ) ;
#236 = AXIS2_PLACEMENT_3D ( 'NONE', #25, #174, #84 ) ;
#237 = DIRECTION ( 'NONE',  ( 0.000000000000000000, 0.000000000000000000, 1.000000000000000000 ) ) ;
#238 = PERSON_AND_ORGANIZATION_ROLE ( 'creator' ) ;
#239 = ORIENTED_EDGE ( 'NONE', *, *, #127, .T. ) ;
#240 = PRODUCT_DEFINITION ( 'NEZNÁMÝ', '', #159, #97 ) ;
#241 = DATE_AND_TIME ( #90, #112 ) ;
#242 = COORDINATED_UNIVERSAL_TIME_OFFSET ( 1, 0, .AHEAD. ) ;
#243 = LOCAL_TIME ( 12, 8, 3.000000000000000000, #108 ) ;
#244 = APPROVAL_DATE_TIME ( #69, #9 ) ;
#245 = ORIENTED_EDGE ( 'NONE', *, *, #33, .F. ) ;
#246 = EDGE_LOOP ( 'NONE', ( #134, #14 ) ) ;
#247 =( GEOMETRIC_REPRESENTATION_CONTEXT ( 3 ) GLOBAL_UNCERTAINTY_ASSIGNED_CONTEXT ( ( #76 ) ) GLOBAL_UNIT_ASSIGNED_CONTEXT ( ( #61, #212, #217 ) ) REPRESENTATION_CONTEXT ( 'NONE', 'WORKASPACE' ) );
#248 = DIRECTION ( 'NONE',  ( 0.000000000000000000, 0.000000000000000000, 1.000000000000000000 ) ) ;
#249 = FACE_OUTER_BOUND ( 'NONE', #95, .T. ) ;
#250 = ORIENTED_EDGE ( 'NONE', *, *, #233, .T. ) ;
#251 = AXIS2_PLACEMENT_3D ( 'NONE', #211, #40, #48 ) ;
#252 = CARTESIAN_POINT ( 'NONE',  ( -4.500000000000000000, 0.000000000000000000, 400.0000000000000000 ) ) ;
#253 = CARTESIAN_POINT ( 'NONE',  ( 4.500000000000000000, 5.510910596163087583E-16, 5.000000000000000000 ) ) ;
#254 = DIRECTION ( 'NONE',  ( 1.000000000000000000, 0.000000000000000000, 0.000000000000000000 ) ) ;
#255 = DIRECTION ( 'NONE',  ( -1.000000000000000000, 0.000000000000000000, 0.000000000000000000 ) ) ;
ENDSEC;
END-ISO-10303-21;
