ISO-10303-21;
HEADER;
FILE_DESCRIPTION (( 'STEP AP203' ),
    '1' );
FILE_NAME ('94fa.STEP',
    '2023-02-12T10:47:20',
    ( '' ),
    ( '' ),
    'SwSTEP 2.0',
    'SolidWorks 2019',
    '' );
FILE_SCHEMA (( 'CONFIG_CONTROL_DESIGN' ));
ENDSEC;

DATA;
#1 = DATE_TIME_ROLE ( 'classification_date' ) ;
#2 = CLOSED_SHELL ( 'NONE', ( #155, #118, #111, #211, #49, #160, #131 ) ) ;
#3 = AXIS2_PLACEMENT_3D ( 'NONE', #232, #151, #53 ) ;
#4 = AXIS2_PLACEMENT_3D ( 'NONE', #73, #239, #133 ) ;
#5 = CARTESIAN_POINT ( 'NONE',  ( 0.000000000000000000, 0.000000000000000000, 315.0000000000000000 ) ) ;
#6 = DIRECTION ( 'NONE',  ( 1.000000000000000000, 0.000000000000000000, 0.000000000000000000 ) ) ;
#7 = AXIS2_PLACEMENT_3D ( 'NONE', #5, #72, #154 ) ;
#8 = CARTESIAN_POINT ( 'NONE',  ( 11.00000000000000000, 1.347111479062088405E-15, 7.000000000000000000 ) ) ;
#9 = ORIENTED_EDGE ( 'NONE', *, *, #81, .T. ) ;
#10 = CARTESIAN_POINT ( 'NONE',  ( 0.000000000000000000, 0.000000000000000000, 7.000000000000000000 ) ) ;
#11 = EDGE_LOOP ( 'NONE', ( #13, #9, #138, #83 ) ) ;
#12 =( NAMED_UNIT ( * ) PLANE_ANGLE_UNIT ( ) SI_UNIT ( $, .RADIAN. ) );
#13 = ORIENTED_EDGE ( 'NONE', *, *, #99, .F. ) ;
#14 = CIRCLE ( 'NONE', #25, 11.00000000000000000 ) ;
#15 = CARTESIAN_POINT ( 'NONE',  ( 0.000000000000000000, 0.000000000000000000, 315.0000000000000000 ) ) ;
#16 = APPROVAL_PERSON_ORGANIZATION ( #88, #123, #163 ) ;
#17 = APPROVAL_ROLE ( '' ) ;
#18 = FACE_OUTER_BOUND ( 'NONE', #103, .T. ) ;
#19 = CYLINDRICAL_SURFACE ( 'NONE', #107, 11.00000000000000000 ) ;
#20 = DIRECTION ( 'NONE',  ( -1.000000000000000000, 0.000000000000000000, 0.000000000000000000 ) ) ;
#21 = ORGANIZATION ( 'NEURÈENÝ', 'NEURÈENÝ', '' ) ;
#22 = DIRECTION ( 'NONE',  ( 0.000000000000000000, 0.000000000000000000, 1.000000000000000000 ) ) ;
#23 = CIRCLE ( 'NONE', #233, 11.00000000000000000 ) ;
#24 = CARTESIAN_POINT ( 'NONE',  ( -7.000000000000000000, 0.000000000000000000, 315.0000000000000000 ) ) ;
#25 = AXIS2_PLACEMENT_3D ( 'NONE', #56, #213, #38 ) ;
#26 = DIRECTION ( 'NONE',  ( 1.000000000000000000, 0.000000000000000000, 0.000000000000000000 ) ) ;
#27 = ORIENTED_EDGE ( 'NONE', *, *, #180, .F. ) ;
#28 = PERSON ( 'NEURÈENÝ', 'NEURÈENÝ', 'NEURÈENÝ', ('NEURÈENÝ'), ('NEURÈENÝ'), ('NEURÈENÝ') ) ;
#29 = CARTESIAN_POINT ( 'NONE',  ( 7.000000000000000000, 8.572527594031473190E-16, 7.000000000000000000 ) ) ;
#30 = ORIENTED_EDGE ( 'NONE', *, *, #215, .T. ) ;
#31 = LOCAL_TIME ( 11, 47, 20.00000000000000000, #125 ) ;
#32 = PRODUCT_DEFINITION_SHAPE ( 'NONE', 'NONE',  #179 ) ;
#33 = CC_DESIGN_SECURITY_CLASSIFICATION ( #236, ( #250 ) ) ;
#34 = CC_DESIGN_PERSON_AND_ORGANIZATION_ASSIGNMENT ( #222, #251, ( #250 ) ) ;
#35 = DIRECTION ( 'NONE',  ( 1.000000000000000000, 0.000000000000000000, -0.000000000000000000 ) ) ;
#36 = APPROVAL ( #149, 'NEURÈENÝ' ) ;
#37 = CARTESIAN_POINT ( 'NONE',  ( 0.000000000000000000, 0.000000000000000000, 315.0000000000000000 ) ) ;
#38 = DIRECTION ( 'NONE',  ( 1.000000000000000000, 0.000000000000000000, 0.000000000000000000 ) ) ;
#39 = DIRECTION ( 'NONE',  ( -0.000000000000000000, -0.000000000000000000, -1.000000000000000000 ) ) ;
#40 = ORIENTED_EDGE ( 'NONE', *, *, #136, .T. ) ;
#41 = DIRECTION ( 'NONE',  ( 1.000000000000000000, 0.000000000000000000, -0.000000000000000000 ) ) ;
#42 = CARTESIAN_POINT ( 'NONE',  ( 0.000000000000000000, 0.000000000000000000, 0.000000000000000000 ) ) ;
#43 = EDGE_CURVE ( 'NONE', #221, #242, #75, .T. ) ;
#44 = DATE_TIME_ROLE ( 'creation_date' ) ;
#45 = CARTESIAN_POINT ( 'NONE',  ( 7.000000000000000000, 8.572527594031473190E-16, 315.0000000000000000 ) ) ;
#46 = CALENDAR_DATE ( 2023, 12, 2 ) ;
#47 = DIRECTION ( 'NONE',  ( 1.000000000000000000, 0.000000000000000000, 0.000000000000000000 ) ) ;
#48 = APPROVAL_STATUS ( 'not_yet_approved' ) ;
#49 = ADVANCED_FACE ( 'NONE', ( #87 ), #203, .F. ) ;
#50 = PERSON_AND_ORGANIZATION_ROLE ( 'creator' ) ;
#51 = APPROVAL_DATE_TIME ( #55, #240 ) ;
#52 = CC_DESIGN_PERSON_AND_ORGANIZATION_ASSIGNMENT ( #184, #84, ( #236 ) ) ;
#53 = DIRECTION ( 'NONE',  ( 1.000000000000000000, 0.000000000000000000, -0.000000000000000000 ) ) ;
#54 = VECTOR ( 'NONE', #39, 1000.000000000000000 ) ;
#55 = DATE_AND_TIME ( #174, #153 ) ;
#56 = CARTESIAN_POINT ( 'NONE',  ( 0.000000000000000000, 0.000000000000000000, 0.000000000000000000 ) ) ;
#57 = CARTESIAN_POINT ( 'NONE',  ( -7.000000000000000000, 0.000000000000000000, 315.0000000000000000 ) ) ;
#58 = FACE_OUTER_BOUND ( 'NONE', #62, .T. ) ;
#59 = ORIENTED_EDGE ( 'NONE', *, *, #173, .F. ) ;
#60 = ORIENTED_EDGE ( 'NONE', *, *, #238, .F. ) ;
#61 = PRODUCT ( '94fa', '94fa', '', ( #105 ) ) ;
#62 = EDGE_LOOP ( 'NONE', ( #185, #91 ) ) ;
#63 = SECURITY_CLASSIFICATION_LEVEL ( 'unclassified' ) ;
#64 = DIRECTION ( 'NONE',  ( -1.000000000000000000, 0.000000000000000000, 0.000000000000000000 ) ) ;
#65 = APPLICATION_CONTEXT ( 'configuration controlled 3d designs of mechanical parts and assemblies' ) ;
#66 = DATE_AND_TIME ( #46, #218 ) ;
#67 = LINE ( 'NONE', #186, #223 ) ;
#68 = APPROVAL_PERSON_ORGANIZATION ( #94, #240, #93 ) ;
#69 = FACE_OUTER_BOUND ( 'NONE', #77, .T. ) ;
#70 = FACE_OUTER_BOUND ( 'NONE', #255, .T. ) ;
#71 = CIRCLE ( 'NONE', #4, 7.000000000000000000 ) ;
#72 = DIRECTION ( 'NONE',  ( -0.000000000000000000, -0.000000000000000000, -1.000000000000000000 ) ) ;
#73 = CARTESIAN_POINT ( 'NONE',  ( 0.000000000000000000, 0.000000000000000000, 7.000000000000000000 ) ) ;
#74 = CC_DESIGN_DATE_AND_TIME_ASSIGNMENT ( #187, #44, ( #179 ) ) ;
#75 = CIRCLE ( 'NONE', #85, 7.000000000000000000 ) ;
#76 = DIRECTION ( 'NONE',  ( 1.000000000000000000, 0.000000000000000000, 0.000000000000000000 ) ) ;
#77 = EDGE_LOOP ( 'NONE', ( #249, #159 ) ) ;
#78 = CARTESIAN_POINT ( 'NONE',  ( 7.000000000000000000, 8.572527594031473190E-16, 315.0000000000000000 ) ) ;
#79 = VERTEX_POINT ( 'NONE', #148 ) ;
#80 = APPROVAL_PERSON_ORGANIZATION ( #109, #36, #17 ) ;
#81 = EDGE_CURVE ( 'NONE', #242, #245, #206, .T. ) ;
#82 = APPLICATION_PROTOCOL_DEFINITION ( 'international standard', 'config_control_design', 1994, #102 ) ;
#83 = ORIENTED_EDGE ( 'NONE', *, *, #136, .F. ) ;
#84 = PERSON_AND_ORGANIZATION_ROLE ( 'classification_officer' ) ;
#85 = AXIS2_PLACEMENT_3D ( 'NONE', #126, #230, #47 ) ;
#86 = DIRECTION ( 'NONE',  ( 0.000000000000000000, 0.000000000000000000, 1.000000000000000000 ) ) ;
#87 = FACE_OUTER_BOUND ( 'NONE', #128, .T. ) ;
#88 = PERSON_AND_ORGANIZATION ( #28, #21 ) ;
#89 = CYLINDRICAL_SURFACE ( 'NONE', #216, 11.00000000000000000 ) ;
#90 = DIRECTION ( 'NONE',  ( 1.000000000000000000, 0.000000000000000000, 0.000000000000000000 ) ) ;
#91 = ORIENTED_EDGE ( 'NONE', *, *, #180, .T. ) ;
#92 = EDGE_CURVE ( 'NONE', #140, #197, #67, .T. ) ;
#93 = APPROVAL_ROLE ( '' ) ;
#94 = PERSON_AND_ORGANIZATION ( #28, #21 ) ;
#95 = CARTESIAN_POINT ( 'NONE',  ( -7.000000000000000000, 0.000000000000000000, 7.000000000000000000 ) ) ;
#96 = AXIS2_PLACEMENT_3D ( 'NONE', #37, #194, #20 ) ;
#97 = CC_DESIGN_APPROVAL ( #240, ( #236 ) ) ;
#98 = COORDINATED_UNIVERSAL_TIME_OFFSET ( 1, 0, .AHEAD. ) ;
#99 = EDGE_CURVE ( 'NONE', #242, #221, #142, .T. ) ;
#100 = AXIS2_PLACEMENT_3D ( 'NONE', #15, #188, #164 ) ;
#101 = ORIENTED_EDGE ( 'NONE', *, *, #191, .T. ) ;
#102 = APPLICATION_CONTEXT ( 'configuration controlled 3d designs of mechanical parts and assemblies' ) ;
#103 = EDGE_LOOP ( 'NONE', ( #124, #200, #150, #219 ) ) ;
#104 = ORIENTED_EDGE ( 'NONE', *, *, #215, .F. ) ;
#105 = MECHANICAL_CONTEXT ( 'NONE', #102, 'mechanical' ) ;
#106 = EDGE_CURVE ( 'NONE', #140, #224, #23, .T. ) ;
#107 = AXIS2_PLACEMENT_3D ( 'NONE', #231, #156, #235 ) ;
#108 = PERSON_AND_ORGANIZATION ( #28, #21 ) ;
#109 = PERSON_AND_ORGANIZATION ( #28, #21 ) ;
#110 = SHAPE_DEFINITION_REPRESENTATION ( #32, #129 ) ;
#111 = ADVANCED_FACE ( 'NONE', ( #18 ), #89, .T. ) ;
#112 = LINE ( 'NONE', #57, #137 ) ;
#113 = DATE_AND_TIME ( #177, #120 ) ;
#114 = CARTESIAN_POINT ( 'NONE',  ( 0.000000000000000000, 0.000000000000000000, 7.000000000000000000 ) ) ;
#115 = DIRECTION ( 'NONE',  ( 0.000000000000000000, 0.000000000000000000, 1.000000000000000000 ) ) ;
#116 = ORIENTED_EDGE ( 'NONE', *, *, #92, .F. ) ;
#117 = VECTOR ( 'NONE', #127, 1000.000000000000000 ) ;
#118 = ADVANCED_FACE ( 'NONE', ( #70 ), #19, .T. ) ;
#119 = AXIS2_PLACEMENT_3D ( 'NONE', #42, #22, #76 ) ;
#120 = LOCAL_TIME ( 11, 47, 20.00000000000000000, #248 ) ;
#121 = FACE_BOUND ( 'NONE', #157, .T. ) ;
#122 = VERTEX_POINT ( 'NONE', #95 ) ;
#123 = APPROVAL ( #48, 'NEURÈENÝ' ) ;
#124 = ORIENTED_EDGE ( 'NONE', *, *, #191, .F. ) ;
#125 = COORDINATED_UNIVERSAL_TIME_OFFSET ( 1, 0, .AHEAD. ) ;
#126 = CARTESIAN_POINT ( 'NONE',  ( 0.000000000000000000, 0.000000000000000000, 315.0000000000000000 ) ) ;
#127 = DIRECTION ( 'NONE',  ( -0.000000000000000000, -0.000000000000000000, -1.000000000000000000 ) ) ;
#128 = EDGE_LOOP ( 'NONE', ( #59, #104 ) ) ;
#129 = ADVANCED_BREP_SHAPE_REPRESENTATION ( '94fa', ( #176, #130 ), #198 ) ;
#130 = AXIS2_PLACEMENT_3D ( 'NONE', #247, #86, #90 ) ;
#131 = ADVANCED_FACE ( 'NONE', ( #69 ), #192, .T. ) ;
#132 = FACE_OUTER_BOUND ( 'NONE', #11, .T. ) ;
#133 = DIRECTION ( 'NONE',  ( 1.000000000000000000, 0.000000000000000000, 0.000000000000000000 ) ) ;
#134 = PLANE ( 'NONE',  #234 ) ;
#135 = DESIGN_CONTEXT ( 'detailed design', #65, 'design' ) ;
#136 = EDGE_CURVE ( 'NONE', #221, #122, #112, .T. ) ;
#137 = VECTOR ( 'NONE', #175, 1000.000000000000000 ) ;
#138 = ORIENTED_EDGE ( 'NONE', *, *, #190, .T. ) ;
#139 = AXIS2_PLACEMENT_3D ( 'NONE', #158, #199, #26 ) ;
#140 = VERTEX_POINT ( 'NONE', #152 ) ;
#141 = ORIENTED_EDGE ( 'NONE', *, *, #190, .F. ) ;
#142 = CIRCLE ( 'NONE', #100, 7.000000000000000000 ) ;
#143 = CIRCLE ( 'NONE', #167, 11.00000000000000000 ) ;
#144 = CARTESIAN_POINT ( 'NONE',  ( 0.000000000000000000, 0.000000000000000000, 0.000000000000000000 ) ) ;
#145 =( LENGTH_UNIT ( ) NAMED_UNIT ( * ) SI_UNIT ( .MILLI., .METRE. ) );
#146 = DIRECTION ( 'NONE',  ( 0.000000000000000000, 0.000000000000000000, 1.000000000000000000 ) ) ;
#147 = PERSON_AND_ORGANIZATION_ROLE ( 'creator' ) ;
#148 = CARTESIAN_POINT ( 'NONE',  ( 11.00000000000000000, 1.347111479062088405E-15, 0.000000000000000000 ) ) ;
#149 = APPROVAL_STATUS ( 'not_yet_approved' ) ;
#150 = ORIENTED_EDGE ( 'NONE', *, *, #92, .T. ) ;
#151 = DIRECTION ( 'NONE',  ( 0.000000000000000000, 0.000000000000000000, 1.000000000000000000 ) ) ;
#152 = CARTESIAN_POINT ( 'NONE',  ( -11.00000000000000000, 0.000000000000000000, 7.000000000000000000 ) ) ;
#153 = LOCAL_TIME ( 11, 47, 20.00000000000000000, #98 ) ;
#154 = DIRECTION ( 'NONE',  ( -1.000000000000000000, 0.000000000000000000, 0.000000000000000000 ) ) ;
#155 = ADVANCED_FACE ( 'NONE', ( #132 ), #212, .T. ) ;
#156 = DIRECTION ( 'NONE',  ( -0.000000000000000000, -0.000000000000000000, -1.000000000000000000 ) ) ;
#157 = EDGE_LOOP ( 'NONE', ( #60, #141 ) ) ;
#158 = CARTESIAN_POINT ( 'NONE',  ( 0.000000000000000000, 0.000000000000000000, 7.000000000000000000 ) ) ;
#159 = ORIENTED_EDGE ( 'NONE', *, *, #99, .T. ) ;
#160 = ADVANCED_FACE ( 'NONE', ( #178 ), #237, .T. ) ;
#161 = CC_DESIGN_APPROVAL ( #36, ( #250 ) ) ;
#162 = ORIENTED_EDGE ( 'NONE', *, *, #238, .T. ) ;
#163 = APPROVAL_ROLE ( '' ) ;
#164 = DIRECTION ( 'NONE',  ( 1.000000000000000000, 0.000000000000000000, 0.000000000000000000 ) ) ;
#165 = COORDINATED_UNIVERSAL_TIME_OFFSET ( 1, 0, .AHEAD. ) ;
#166 = EDGE_LOOP ( 'NONE', ( #243, #182, #40, #162 ) ) ;
#167 = AXIS2_PLACEMENT_3D ( 'NONE', #114, #181, #6 ) ;
#168 = CARTESIAN_POINT ( 'NONE',  ( 0.000000000000000000, 0.000000000000000000, 7.000000000000000000 ) ) ;
#169 = DATE_AND_TIME ( #202, #31 ) ;
#170 = CC_DESIGN_DATE_AND_TIME_ASSIGNMENT ( #113, #1, ( #236 ) ) ;
#171 = CARTESIAN_POINT ( 'NONE',  ( 0.000000000000000000, 0.000000000000000000, 7.000000000000000000 ) ) ;
#172 = COORDINATED_UNIVERSAL_TIME_OFFSET ( 1, 0, .AHEAD. ) ;
#173 = EDGE_CURVE ( 'NONE', #197, #79, #14, .T. ) ;
#174 = CALENDAR_DATE ( 2023, 12, 2 ) ;
#175 = DIRECTION ( 'NONE',  ( -0.000000000000000000, -0.000000000000000000, -1.000000000000000000 ) ) ;
#176 = MANIFOLD_SOLID_BREP ( 'Pøidat vysunutím3', #2 ) ;
#177 = CALENDAR_DATE ( 2023, 12, 2 ) ;
#178 = FACE_OUTER_BOUND ( 'NONE', #166, .T. ) ;
#179 = PRODUCT_DEFINITION ( 'NEZNÁMÝ', '', #250, #135 ) ;
#180 = EDGE_CURVE ( 'NONE', #224, #140, #143, .T. ) ;
#181 = DIRECTION ( 'NONE',  ( 0.000000000000000000, 0.000000000000000000, 1.000000000000000000 ) ) ;
#182 = ORIENTED_EDGE ( 'NONE', *, *, #43, .F. ) ;
#183 = CIRCLE ( 'NONE', #139, 7.000000000000000000 ) ;
#184 = PERSON_AND_ORGANIZATION ( #28, #21 ) ;
#185 = ORIENTED_EDGE ( 'NONE', *, *, #106, .T. ) ;
#186 = CARTESIAN_POINT ( 'NONE',  ( -11.00000000000000000, 0.000000000000000000, 7.000000000000000000 ) ) ;
#187 = DATE_AND_TIME ( #208, #229 ) ;
#188 = DIRECTION ( 'NONE',  ( 0.000000000000000000, 0.000000000000000000, 1.000000000000000000 ) ) ;
#189 = APPROVAL_DATE_TIME ( #169, #36 ) ;
#190 = EDGE_CURVE ( 'NONE', #245, #122, #71, .T. ) ;
#191 = EDGE_CURVE ( 'NONE', #224, #79, #214, .T. ) ;
#192 = PLANE ( 'NONE',  #3 ) ;
#193 = APPROVAL_STATUS ( 'not_yet_approved' ) ;
#194 = DIRECTION ( 'NONE',  ( -0.000000000000000000, -0.000000000000000000, -1.000000000000000000 ) ) ;
#195 = CC_DESIGN_APPROVAL ( #123, ( #179 ) ) ;
#196 = CARTESIAN_POINT ( 'NONE',  ( 11.00000000000000000, 1.347111479062088405E-15, 7.000000000000000000 ) ) ;
#197 = VERTEX_POINT ( 'NONE', #220 ) ;
#198 =( GEOMETRIC_REPRESENTATION_CONTEXT ( 3 ) GLOBAL_UNCERTAINTY_ASSIGNED_CONTEXT ( ( #210 ) ) GLOBAL_UNIT_ASSIGNED_CONTEXT ( ( #145, #12, #205 ) ) REPRESENTATION_CONTEXT ( 'NONE', 'WORKASPACE' ) );
#199 = DIRECTION ( 'NONE',  ( 0.000000000000000000, 0.000000000000000000, 1.000000000000000000 ) ) ;
#200 = ORIENTED_EDGE ( 'NONE', *, *, #106, .F. ) ;
#201 = PERSON_AND_ORGANIZATION ( #28, #21 ) ;
#202 = CALENDAR_DATE ( 2023, 12, 2 ) ;
#203 = PLANE ( 'NONE',  #207 ) ;
#204 = PERSON_AND_ORGANIZATION_ROLE ( 'design_owner' ) ;
#205 =( NAMED_UNIT ( * ) SI_UNIT ( $, .STERADIAN. ) SOLID_ANGLE_UNIT ( ) );
#206 = LINE ( 'NONE', #45, #117 ) ;
#207 = AXIS2_PLACEMENT_3D ( 'NONE', #144, #225, #35 ) ;
#208 = CALENDAR_DATE ( 2023, 12, 2 ) ;
#209 = DIRECTION ( 'NONE',  ( -0.000000000000000000, -0.000000000000000000, -1.000000000000000000 ) ) ;
#210 = UNCERTAINTY_MEASURE_WITH_UNIT (LENGTH_MEASURE( 1.000000000000000082E-05 ), #145, 'distance_accuracy_value', 'NONE');
#211 = ADVANCED_FACE ( 'NONE', ( #121, #58 ), #134, .T. ) ;
#212 = CYLINDRICAL_SURFACE ( 'NONE', #96, 7.000000000000000000 ) ;
#213 = DIRECTION ( 'NONE',  ( 0.000000000000000000, 0.000000000000000000, 1.000000000000000000 ) ) ;
#214 = LINE ( 'NONE', #196, #54 ) ;
#215 = EDGE_CURVE ( 'NONE', #79, #197, #217, .T. ) ;
#216 = AXIS2_PLACEMENT_3D ( 'NONE', #171, #252, #64 ) ;
#217 = CIRCLE ( 'NONE', #119, 11.00000000000000000 ) ;
#218 = LOCAL_TIME ( 11, 47, 20.00000000000000000, #172 ) ;
#219 = ORIENTED_EDGE ( 'NONE', *, *, #173, .T. ) ;
#220 = CARTESIAN_POINT ( 'NONE',  ( -11.00000000000000000, 0.000000000000000000, 0.000000000000000000 ) ) ;
#221 = VERTEX_POINT ( 'NONE', #24 ) ;
#222 = PERSON_AND_ORGANIZATION ( #28, #21 ) ;
#223 = VECTOR ( 'NONE', #209, 1000.000000000000000 ) ;
#224 = VERTEX_POINT ( 'NONE', #8 ) ;
#225 = DIRECTION ( 'NONE',  ( 0.000000000000000000, 0.000000000000000000, 1.000000000000000000 ) ) ;
#226 = APPLICATION_PROTOCOL_DEFINITION ( 'international standard', 'config_control_design', 1994, #65 ) ;
#227 = DIRECTION ( 'NONE',  ( 1.000000000000000000, 0.000000000000000000, 0.000000000000000000 ) ) ;
#228 = PERSON_AND_ORGANIZATION ( #28, #21 ) ;
#229 = LOCAL_TIME ( 11, 47, 20.00000000000000000, #165 ) ;
#230 = DIRECTION ( 'NONE',  ( 0.000000000000000000, 0.000000000000000000, 1.000000000000000000 ) ) ;
#231 = CARTESIAN_POINT ( 'NONE',  ( 0.000000000000000000, 0.000000000000000000, 7.000000000000000000 ) ) ;
#232 = CARTESIAN_POINT ( 'NONE',  ( 0.000000000000000000, 0.000000000000000000, 315.0000000000000000 ) ) ;
#233 = AXIS2_PLACEMENT_3D ( 'NONE', #168, #146, #227 ) ;
#234 = AXIS2_PLACEMENT_3D ( 'NONE', #10, #115, #41 ) ;
#235 = DIRECTION ( 'NONE',  ( -1.000000000000000000, 0.000000000000000000, 0.000000000000000000 ) ) ;
#236 = SECURITY_CLASSIFICATION ( '', '', #63 ) ;
#237 = CYLINDRICAL_SURFACE ( 'NONE', #7, 7.000000000000000000 ) ;
#238 = EDGE_CURVE ( 'NONE', #122, #245, #183, .T. ) ;
#239 = DIRECTION ( 'NONE',  ( 0.000000000000000000, 0.000000000000000000, 1.000000000000000000 ) ) ;
#240 = APPROVAL ( #193, 'NEURÈENÝ' ) ;
#241 = CC_DESIGN_PERSON_AND_ORGANIZATION_ASSIGNMENT ( #201, #204, ( #61 ) ) ;
#242 = VERTEX_POINT ( 'NONE', #78 ) ;
#243 = ORIENTED_EDGE ( 'NONE', *, *, #81, .F. ) ;
#244 = PRODUCT_RELATED_PRODUCT_CATEGORY ( 'detail', '', ( #61 ) ) ;
#245 = VERTEX_POINT ( 'NONE', #29 ) ;
#246 = CC_DESIGN_PERSON_AND_ORGANIZATION_ASSIGNMENT ( #228, #50, ( #250 ) ) ;
#247 = CARTESIAN_POINT ( 'NONE',  ( 0.000000000000000000, 0.000000000000000000, 0.000000000000000000 ) ) ;
#248 = COORDINATED_UNIVERSAL_TIME_OFFSET ( 1, 0, .AHEAD. ) ;
#249 = ORIENTED_EDGE ( 'NONE', *, *, #43, .T. ) ;
#250 = PRODUCT_DEFINITION_FORMATION_WITH_SPECIFIED_SOURCE ( 'LIBOVOLNÝ', '', #61, .NOT_KNOWN. ) ;
#251 = PERSON_AND_ORGANIZATION_ROLE ( 'design_supplier' ) ;
#252 = DIRECTION ( 'NONE',  ( -0.000000000000000000, -0.000000000000000000, -1.000000000000000000 ) ) ;
#253 = CC_DESIGN_PERSON_AND_ORGANIZATION_ASSIGNMENT ( #108, #147, ( #179 ) ) ;
#254 = APPROVAL_DATE_TIME ( #66, #123 ) ;
#255 = EDGE_LOOP ( 'NONE', ( #27, #101, #30, #116 ) ) ;
ENDSEC;
END-ISO-10303-21;
