ISO-10303-21;
HEADER;
FILE_DESCRIPTION (( 'STEP AP203' ),
    '1' );
FILE_NAME ('dca6.STEP',
    '2023-02-12T12:23:09',
    ( '' ),
    ( '' ),
    'SwSTEP 2.0',
    'SolidWorks 2019',
    '' );
FILE_SCHEMA (( 'CONFIG_CONTROL_DESIGN' ));
ENDSEC;

DATA;
#1 = VERTEX_POINT ( 'NONE', #167 ) ;
#2 = CIRCLE ( 'NONE', #67, 2.000000000000000000 ) ;
#3 = DIRECTION ( 'NONE',  ( 1.000000000000000000, 0.000000000000000000, 0.000000000000000000 ) ) ;
#4 = PRODUCT ( 'dca6', 'dca6', '', ( #162 ) ) ;
#5 = DESIGN_CONTEXT ( 'detailed design', #103, 'design' ) ;
#6 = CC_DESIGN_APPROVAL ( #144, ( #160 ) ) ;
#7 = DATE_TIME_ROLE ( 'classification_date' ) ;
#8 = PERSON_AND_ORGANIZATION_ROLE ( 'design_owner' ) ;
#9 = CIRCLE ( 'NONE', #38, 2.000000000000000000 ) ;
#10 = DIRECTION ( 'NONE',  ( 0.000000000000000000, 0.000000000000000000, 1.000000000000000000 ) ) ;
#11 = EDGE_CURVE ( 'NONE', #70, #30, #25, .T. ) ;
#12 = CARTESIAN_POINT ( 'NONE',  ( 0.000000000000000000, 0.000000000000000000, 2.000000000000000000 ) ) ;
#13 = ADVANCED_FACE ( 'NONE', ( #171, #208 ), #232, .T. ) ;
#14 = DIRECTION ( 'NONE',  ( 1.000000000000000000, 0.000000000000000000, -0.000000000000000000 ) ) ;
#15 = ORIENTED_EDGE ( 'NONE', *, *, #129, .T. ) ;
#16 = VERTEX_POINT ( 'NONE', #206 ) ;
#17 = CALENDAR_DATE ( 2023, 12, 2 ) ;
#18 = EDGE_LOOP ( 'NONE', ( #117, #15 ) ) ;
#19 = APPROVAL ( #240, 'NEURÈENÝ' ) ;
#20 = ORIENTED_EDGE ( 'NONE', *, *, #237, .F. ) ;
#21 = EDGE_CURVE ( 'NONE', #133, #16, #109, .T. ) ;
#22 = APPROVAL_STATUS ( 'not_yet_approved' ) ;
#23 = CARTESIAN_POINT ( 'NONE',  ( 2.000000000000000000, 2.449293598294706414E-16, 2.000000000000000000 ) ) ;
#24 = CARTESIAN_POINT ( 'NONE',  ( 0.000000000000000000, 0.000000000000000000, 0.000000000000000000 ) ) ;
#25 = LINE ( 'NONE', #44, #219 ) ;
#26 = CARTESIAN_POINT ( 'NONE',  ( 0.000000000000000000, 0.000000000000000000, 2.000000000000000000 ) ) ;
#27 = ORIENTED_EDGE ( 'NONE', *, *, #228, .F. ) ;
#28 = SHAPE_DEFINITION_REPRESENTATION ( #194, #163 ) ;
#29 = DIRECTION ( 'NONE',  ( -0.000000000000000000, -0.000000000000000000, -1.000000000000000000 ) ) ;
#30 = VERTEX_POINT ( 'NONE', #250 ) ;
#31 = FACE_OUTER_BOUND ( 'NONE', #135, .T. ) ;
#32 = ORIENTED_EDGE ( 'NONE', *, *, #11, .T. ) ;
#33 = AXIS2_PLACEMENT_3D ( 'NONE', #185, #225, #46 ) ;
#34 = CARTESIAN_POINT ( 'NONE',  ( 0.000000000000000000, 0.000000000000000000, 250.0000000000000000 ) ) ;
#35 = PERSON ( 'NEURÈENÝ', 'NEURÈENÝ', 'NEURÈENÝ', ('NEURÈENÝ'), ('NEURÈENÝ'), ('NEURÈENÝ') ) ;
#36 = DIRECTION ( 'NONE',  ( 0.000000000000000000, 0.000000000000000000, 1.000000000000000000 ) ) ;
#37 = APPROVAL_PERSON_ORGANIZATION ( #221, #179, #239 ) ;
#38 = AXIS2_PLACEMENT_3D ( 'NONE', #24, #87, #227 ) ;
#39 = APPROVAL_ROLE ( '' ) ;
#40 = PERSON_AND_ORGANIZATION_ROLE ( 'design_supplier' ) ;
#41 = EDGE_CURVE ( 'NONE', #70, #112, #2, .T. ) ;
#42 = APPLICATION_PROTOCOL_DEFINITION ( 'international standard', 'config_control_design', 1994, #103 ) ;
#43 = COORDINATED_UNIVERSAL_TIME_OFFSET ( 1, 0, .AHEAD. ) ;
#44 = CARTESIAN_POINT ( 'NONE',  ( -2.000000000000000000, 0.000000000000000000, 2.000000000000000000 ) ) ;
#45 = AXIS2_PLACEMENT_3D ( 'NONE', #77, #94, #159 ) ;
#46 = DIRECTION ( 'NONE',  ( 1.000000000000000000, 0.000000000000000000, 0.000000000000000000 ) ) ;
#47 = FACE_OUTER_BOUND ( 'NONE', #49, .T. ) ;
#48 = DIRECTION ( 'NONE',  ( 1.000000000000000000, 0.000000000000000000, 0.000000000000000000 ) ) ;
#49 = EDGE_LOOP ( 'NONE', ( #97, #188 ) ) ;
#50 = ADVANCED_FACE ( 'NONE', ( #47 ), #69, .F. ) ;
#51 = EDGE_CURVE ( 'NONE', #1, #16, #204, .T. ) ;
#52 = PLANE ( 'NONE',  #214 ) ;
#53 = ORIENTED_EDGE ( 'NONE', *, *, #51, .F. ) ;
#54 =( LENGTH_UNIT ( ) NAMED_UNIT ( * ) SI_UNIT ( .MILLI., .METRE. ) );
#55 = ORIENTED_EDGE ( 'NONE', *, *, #100, .T. ) ;
#56 = ADVANCED_FACE ( 'NONE', ( #152 ), #245, .T. ) ;
#57 = AXIS2_PLACEMENT_3D ( 'NONE', #86, #68, #202 ) ;
#58 = CYLINDRICAL_SURFACE ( 'NONE', #182, 1.000000000000000000 ) ;
#59 = CYLINDRICAL_SURFACE ( 'NONE', #45, 1.000000000000000000 ) ;
#60 = CC_DESIGN_APPROVAL ( #19, ( #218 ) ) ;
#61 = CIRCLE ( 'NONE', #33, 2.000000000000000000 ) ;
#62 = DATE_AND_TIME ( #217, #230 ) ;
#63 = EDGE_CURVE ( 'NONE', #16, #133, #166, .T. ) ;
#64 = APPROVAL_ROLE ( '' ) ;
#65 = PERSON_AND_ORGANIZATION_ROLE ( 'classification_officer' ) ;
#66 = DIRECTION ( 'NONE',  ( 1.000000000000000000, 0.000000000000000000, 0.000000000000000000 ) ) ;
#67 = AXIS2_PLACEMENT_3D ( 'NONE', #26, #229, #203 ) ;
#68 = DIRECTION ( 'NONE',  ( -0.000000000000000000, -0.000000000000000000, -1.000000000000000000 ) ) ;
#69 = PLANE ( 'NONE',  #93 ) ;
#70 = VERTEX_POINT ( 'NONE', #248 ) ;
#71 = AXIS2_PLACEMENT_3D ( 'NONE', #187, #186, #88 ) ;
#72 =( NAMED_UNIT ( * ) PLANE_ANGLE_UNIT ( ) SI_UNIT ( $, .RADIAN. ) );
#73 = ORIENTED_EDGE ( 'NONE', *, *, #63, .T. ) ;
#74 = CARTESIAN_POINT ( 'NONE',  ( 0.000000000000000000, 0.000000000000000000, 250.0000000000000000 ) ) ;
#75 = EDGE_LOOP ( 'NONE', ( #27, #55, #235, #53 ) ) ;
#76 = CLOSED_SHELL ( 'NONE', ( #189, #56, #108, #13, #50, #181, #197 ) ) ;
#77 = CARTESIAN_POINT ( 'NONE',  ( 0.000000000000000000, 0.000000000000000000, 250.0000000000000000 ) ) ;
#78 = CC_DESIGN_PERSON_AND_ORGANIZATION_ASSIGNMENT ( #122, #65, ( #218 ) ) ;
#79 =( GEOMETRIC_REPRESENTATION_CONTEXT ( 3 ) GLOBAL_UNCERTAINTY_ASSIGNED_CONTEXT ( ( #80 ) ) GLOBAL_UNIT_ASSIGNED_CONTEXT ( ( #54, #72, #253 ) ) REPRESENTATION_CONTEXT ( 'NONE', 'WORKASPACE' ) );
#80 = UNCERTAINTY_MEASURE_WITH_UNIT (LENGTH_MEASURE( 1.000000000000000082E-05 ), #54, 'distance_accuracy_value', 'NONE');
#81 = DATE_TIME_ROLE ( 'creation_date' ) ;
#82 = EDGE_CURVE ( 'NONE', #95, #30, #151, .T. ) ;
#83 = PERSON_AND_ORGANIZATION ( #35, #238 ) ;
#84 = COORDINATED_UNIVERSAL_TIME_OFFSET ( 1, 0, .AHEAD. ) ;
#85 = DIRECTION ( 'NONE',  ( 1.000000000000000000, 0.000000000000000000, 0.000000000000000000 ) ) ;
#86 = CARTESIAN_POINT ( 'NONE',  ( 0.000000000000000000, 0.000000000000000000, 2.000000000000000000 ) ) ;
#87 = DIRECTION ( 'NONE',  ( 0.000000000000000000, 0.000000000000000000, 1.000000000000000000 ) ) ;
#88 = DIRECTION ( 'NONE',  ( 1.000000000000000000, 0.000000000000000000, 0.000000000000000000 ) ) ;
#89 = CARTESIAN_POINT ( 'NONE',  ( 0.000000000000000000, 0.000000000000000000, 2.000000000000000000 ) ) ;
#90 = ORIENTED_EDGE ( 'NONE', *, *, #82, .T. ) ;
#91 = DIRECTION ( 'NONE',  ( 1.000000000000000000, 0.000000000000000000, 0.000000000000000000 ) ) ;
#92 = ORIENTED_EDGE ( 'NONE', *, *, #21, .F. ) ;
#93 = AXIS2_PLACEMENT_3D ( 'NONE', #130, #127, #14 ) ;
#94 = DIRECTION ( 'NONE',  ( -0.000000000000000000, -0.000000000000000000, -1.000000000000000000 ) ) ;
#95 = VERTEX_POINT ( 'NONE', #146 ) ;
#96 = DIRECTION ( 'NONE',  ( -0.000000000000000000, -0.000000000000000000, -1.000000000000000000 ) ) ;
#97 = ORIENTED_EDGE ( 'NONE', *, *, #149, .F. ) ;
#98 = DIRECTION ( 'NONE',  ( -0.000000000000000000, -0.000000000000000000, -1.000000000000000000 ) ) ;
#99 = AXIS2_PLACEMENT_3D ( 'NONE', #34, #139, #3 ) ;
#100 = EDGE_CURVE ( 'NONE', #251, #133, #190, .T. ) ;
#101 = DATE_AND_TIME ( #123, #147 ) ;
#102 = CALENDAR_DATE ( 2023, 12, 2 ) ;
#103 = APPLICATION_CONTEXT ( 'configuration controlled 3d designs of mechanical parts and assemblies' ) ;
#104 = CIRCLE ( 'NONE', #252, 1.000000000000000000 ) ;
#105 = APPLICATION_PROTOCOL_DEFINITION ( 'international standard', 'config_control_design', 1994, #215 ) ;
#106 = DIRECTION ( 'NONE',  ( 1.000000000000000000, 0.000000000000000000, -0.000000000000000000 ) ) ;
#107 = CC_DESIGN_SECURITY_CLASSIFICATION ( #218, ( #236 ) ) ;
#108 = ADVANCED_FACE ( 'NONE', ( #150 ), #249, .T. ) ;
#109 = CIRCLE ( 'NONE', #205, 1.000000000000000000 ) ;
#110 = DIRECTION ( 'NONE',  ( 0.000000000000000000, 0.000000000000000000, 1.000000000000000000 ) ) ;
#111 = DIRECTION ( 'NONE',  ( -0.000000000000000000, -0.000000000000000000, -1.000000000000000000 ) ) ;
#112 = VERTEX_POINT ( 'NONE', #23 ) ;
#113 = CARTESIAN_POINT ( 'NONE',  ( 0.000000000000000000, 0.000000000000000000, 2.000000000000000000 ) ) ;
#114 = EDGE_LOOP ( 'NONE', ( #155, #255, #32, #175 ) ) ;
#115 = ORIENTED_EDGE ( 'NONE', *, *, #63, .F. ) ;
#116 = LOCAL_TIME ( 13, 23, 9.000000000000000000, #84 ) ;
#117 = ORIENTED_EDGE ( 'NONE', *, *, #41, .T. ) ;
#118 = VECTOR ( 'NONE', #148, 1000.000000000000000 ) ;
#119 = CALENDAR_DATE ( 2023, 12, 2 ) ;
#120 = APPROVAL_PERSON_ORGANIZATION ( #83, #19, #64 ) ;
#121 = PERSON_AND_ORGANIZATION ( #35, #238 ) ;
#122 = PERSON_AND_ORGANIZATION ( #35, #238 ) ;
#123 = CALENDAR_DATE ( 2023, 12, 2 ) ;
#124 = APPROVAL_PERSON_ORGANIZATION ( #216, #144, #39 ) ;
#125 = PERSON_AND_ORGANIZATION ( #35, #238 ) ;
#126 = CC_DESIGN_PERSON_AND_ORGANIZATION_ASSIGNMENT ( #164, #145, ( #236 ) ) ;
#127 = DIRECTION ( 'NONE',  ( 0.000000000000000000, 0.000000000000000000, 1.000000000000000000 ) ) ;
#128 = CARTESIAN_POINT ( 'NONE',  ( 1.000000000000000000, 1.224646799147353207E-16, 2.000000000000000000 ) ) ;
#129 = EDGE_CURVE ( 'NONE', #112, #70, #61, .T. ) ;
#130 = CARTESIAN_POINT ( 'NONE',  ( 0.000000000000000000, 0.000000000000000000, 0.000000000000000000 ) ) ;
#131 = CARTESIAN_POINT ( 'NONE',  ( -1.000000000000000000, 0.000000000000000000, 250.0000000000000000 ) ) ;
#132 = DIRECTION ( 'NONE',  ( -0.000000000000000000, -0.000000000000000000, -1.000000000000000000 ) ) ;
#133 = VERTEX_POINT ( 'NONE', #128 ) ;
#134 = CARTESIAN_POINT ( 'NONE',  ( 0.000000000000000000, 0.000000000000000000, 250.0000000000000000 ) ) ;
#135 = EDGE_LOOP ( 'NONE', ( #212, #20, #207, #73 ) ) ;
#136 = CC_DESIGN_APPROVAL ( #179, ( #236 ) ) ;
#137 = CC_DESIGN_DATE_AND_TIME_ASSIGNMENT ( #180, #7, ( #218 ) ) ;
#138 = CC_DESIGN_PERSON_AND_ORGANIZATION_ASSIGNMENT ( #125, #8, ( #4 ) ) ;
#139 = DIRECTION ( 'NONE',  ( 0.000000000000000000, 0.000000000000000000, 1.000000000000000000 ) ) ;
#140 = FACE_OUTER_BOUND ( 'NONE', #209, .T. ) ;
#141 = APPROVAL_STATUS ( 'not_yet_approved' ) ;
#142 = AXIS2_PLACEMENT_3D ( 'NONE', #89, #110, #106 ) ;
#143 = COORDINATED_UNIVERSAL_TIME_OFFSET ( 1, 0, .AHEAD. ) ;
#144 = APPROVAL ( #141, 'NEURÈENÝ' ) ;
#145 = PERSON_AND_ORGANIZATION_ROLE ( 'creator' ) ;
#146 = CARTESIAN_POINT ( 'NONE',  ( 2.000000000000000000, 2.449293598294706414E-16, 0.000000000000000000 ) ) ;
#147 = LOCAL_TIME ( 13, 23, 9.000000000000000000, #242 ) ;
#148 = DIRECTION ( 'NONE',  ( -0.000000000000000000, -0.000000000000000000, -1.000000000000000000 ) ) ;
#149 = EDGE_CURVE ( 'NONE', #30, #95, #9, .T. ) ;
#150 = FACE_OUTER_BOUND ( 'NONE', #114, .T. ) ;
#151 = CIRCLE ( 'NONE', #71, 2.000000000000000000 ) ;
#152 = FACE_OUTER_BOUND ( 'NONE', #156, .T. ) ;
#153 = ORIENTED_EDGE ( 'NONE', *, *, #11, .F. ) ;
#154 = DIRECTION ( 'NONE',  ( 1.000000000000000000, 0.000000000000000000, -0.000000000000000000 ) ) ;
#155 = ORIENTED_EDGE ( 'NONE', *, *, #158, .F. ) ;
#156 = EDGE_LOOP ( 'NONE', ( #191, #233, #90, #153 ) ) ;
#157 = EDGE_LOOP ( 'NONE', ( #115, #92 ) ) ;
#158 = EDGE_CURVE ( 'NONE', #112, #95, #193, .T. ) ;
#159 = DIRECTION ( 'NONE',  ( -1.000000000000000000, 0.000000000000000000, 0.000000000000000000 ) ) ;
#160 = PRODUCT_DEFINITION ( 'NEZNÁMÝ', '', #236, #5 ) ;
#161 = CARTESIAN_POINT ( 'NONE',  ( 0.000000000000000000, 0.000000000000000000, 0.000000000000000000 ) ) ;
#162 = MECHANICAL_CONTEXT ( 'NONE', #215, 'mechanical' ) ;
#163 = ADVANCED_BREP_SHAPE_REPRESENTATION ( 'dca6', ( #226, #200 ), #79 ) ;
#164 = PERSON_AND_ORGANIZATION ( #35, #238 ) ;
#165 = DIRECTION ( 'NONE',  ( 0.000000000000000000, 0.000000000000000000, 1.000000000000000000 ) ) ;
#166 = CIRCLE ( 'NONE', #211, 1.000000000000000000 ) ;
#167 = CARTESIAN_POINT ( 'NONE',  ( -1.000000000000000000, 0.000000000000000000, 250.0000000000000000 ) ) ;
#168 = APPROVAL_DATE_TIME ( #170, #19 ) ;
#169 = CARTESIAN_POINT ( 'NONE',  ( 1.000000000000000000, 1.224646799147353207E-16, 250.0000000000000000 ) ) ;
#170 = DATE_AND_TIME ( #17, #177 ) ;
#171 = FACE_BOUND ( 'NONE', #157, .T. ) ;
#172 = CARTESIAN_POINT ( 'NONE',  ( 1.000000000000000000, 1.224646799147353207E-16, 250.0000000000000000 ) ) ;
#173 = CC_DESIGN_DATE_AND_TIME_ASSIGNMENT ( #101, #81, ( #160 ) ) ;
#174 = CARTESIAN_POINT ( 'NONE',  ( 0.000000000000000000, 0.000000000000000000, 250.0000000000000000 ) ) ;
#175 = ORIENTED_EDGE ( 'NONE', *, *, #149, .T. ) ;
#176 = CARTESIAN_POINT ( 'NONE',  ( 2.000000000000000000, 2.449293598294706414E-16, 2.000000000000000000 ) ) ;
#177 = LOCAL_TIME ( 13, 23, 9.000000000000000000, #220 ) ;
#178 = CIRCLE ( 'NONE', #99, 1.000000000000000000 ) ;
#179 = APPROVAL ( #22, 'NEURÈENÝ' ) ;
#180 = DATE_AND_TIME ( #102, #246 ) ;
#181 = ADVANCED_FACE ( 'NONE', ( #31 ), #59, .T. ) ;
#182 = AXIS2_PLACEMENT_3D ( 'NONE', #174, #98, #254 ) ;
#183 = DATE_AND_TIME ( #119, #116 ) ;
#184 = DIRECTION ( 'NONE',  ( 0.000000000000000000, 0.000000000000000000, 1.000000000000000000 ) ) ;
#185 = CARTESIAN_POINT ( 'NONE',  ( 0.000000000000000000, 0.000000000000000000, 2.000000000000000000 ) ) ;
#186 = DIRECTION ( 'NONE',  ( 0.000000000000000000, 0.000000000000000000, 1.000000000000000000 ) ) ;
#187 = CARTESIAN_POINT ( 'NONE',  ( 0.000000000000000000, 0.000000000000000000, 0.000000000000000000 ) ) ;
#188 = ORIENTED_EDGE ( 'NONE', *, *, #82, .F. ) ;
#189 = ADVANCED_FACE ( 'NONE', ( #234 ), #58, .T. ) ;
#190 = LINE ( 'NONE', #169, #118 ) ;
#191 = ORIENTED_EDGE ( 'NONE', *, *, #129, .F. ) ;
#192 = ORIENTED_EDGE ( 'NONE', *, *, #228, .T. ) ;
#193 = LINE ( 'NONE', #176, #223 ) ;
#194 = PRODUCT_DEFINITION_SHAPE ( 'NONE', 'NONE',  #160 ) ;
#195 = PRODUCT_RELATED_PRODUCT_CATEGORY ( 'detail', '', ( #4 ) ) ;
#196 = PERSON_AND_ORGANIZATION_ROLE ( 'creator' ) ;
#197 = ADVANCED_FACE ( 'NONE', ( #140 ), #52, .T. ) ;
#198 = PERSON_AND_ORGANIZATION ( #35, #238 ) ;
#199 = APPROVAL_DATE_TIME ( #62, #179 ) ;
#200 = AXIS2_PLACEMENT_3D ( 'NONE', #161, #10, #85 ) ;
#201 = APPROVAL_DATE_TIME ( #183, #144 ) ;
#202 = DIRECTION ( 'NONE',  ( -1.000000000000000000, 0.000000000000000000, 0.000000000000000000 ) ) ;
#203 = DIRECTION ( 'NONE',  ( 1.000000000000000000, 0.000000000000000000, 0.000000000000000000 ) ) ;
#204 = LINE ( 'NONE', #131, #231 ) ;
#205 = AXIS2_PLACEMENT_3D ( 'NONE', #12, #165, #66 ) ;
#206 = CARTESIAN_POINT ( 'NONE',  ( -1.000000000000000000, 0.000000000000000000, 2.000000000000000000 ) ) ;
#207 = ORIENTED_EDGE ( 'NONE', *, *, #51, .T. ) ;
#208 = FACE_OUTER_BOUND ( 'NONE', #18, .T. ) ;
#209 = EDGE_LOOP ( 'NONE', ( #210, #192 ) ) ;
#210 = ORIENTED_EDGE ( 'NONE', *, *, #237, .T. ) ;
#211 = AXIS2_PLACEMENT_3D ( 'NONE', #243, #184, #48 ) ;
#212 = ORIENTED_EDGE ( 'NONE', *, *, #100, .F. ) ;
#213 = DIRECTION ( 'NONE',  ( 0.000000000000000000, 0.000000000000000000, 1.000000000000000000 ) ) ;
#214 = AXIS2_PLACEMENT_3D ( 'NONE', #74, #213, #154 ) ;
#215 = APPLICATION_CONTEXT ( 'configuration controlled 3d designs of mechanical parts and assemblies' ) ;
#216 = PERSON_AND_ORGANIZATION ( #35, #238 ) ;
#217 = CALENDAR_DATE ( 2023, 12, 2 ) ;
#218 = SECURITY_CLASSIFICATION ( '', '', #241 ) ;
#219 = VECTOR ( 'NONE', #132, 1000.000000000000000 ) ;
#220 = COORDINATED_UNIVERSAL_TIME_OFFSET ( 1, 0, .AHEAD. ) ;
#221 = PERSON_AND_ORGANIZATION ( #35, #238 ) ;
#222 = DIRECTION ( 'NONE',  ( -1.000000000000000000, 0.000000000000000000, 0.000000000000000000 ) ) ;
#223 = VECTOR ( 'NONE', #96, 1000.000000000000000 ) ;
#224 = CC_DESIGN_PERSON_AND_ORGANIZATION_ASSIGNMENT ( #198, #196, ( #160 ) ) ;
#225 = DIRECTION ( 'NONE',  ( 0.000000000000000000, 0.000000000000000000, 1.000000000000000000 ) ) ;
#226 = MANIFOLD_SOLID_BREP ( 'Pøidat vysunutím3', #76 ) ;
#227 = DIRECTION ( 'NONE',  ( 1.000000000000000000, 0.000000000000000000, 0.000000000000000000 ) ) ;
#228 = EDGE_CURVE ( 'NONE', #251, #1, #178, .T. ) ;
#229 = DIRECTION ( 'NONE',  ( 0.000000000000000000, 0.000000000000000000, 1.000000000000000000 ) ) ;
#230 = LOCAL_TIME ( 13, 23, 9.000000000000000000, #43 ) ;
#231 = VECTOR ( 'NONE', #111, 1000.000000000000000 ) ;
#232 = PLANE ( 'NONE',  #142 ) ;
#233 = ORIENTED_EDGE ( 'NONE', *, *, #158, .T. ) ;
#234 = FACE_OUTER_BOUND ( 'NONE', #75, .T. ) ;
#235 = ORIENTED_EDGE ( 'NONE', *, *, #21, .T. ) ;
#236 = PRODUCT_DEFINITION_FORMATION_WITH_SPECIFIED_SOURCE ( 'LIBOVOLNÝ', '', #4, .NOT_KNOWN. ) ;
#237 = EDGE_CURVE ( 'NONE', #1, #251, #104, .T. ) ;
#238 = ORGANIZATION ( 'NEURÈENÝ', 'NEURÈENÝ', '' ) ;
#239 = APPROVAL_ROLE ( '' ) ;
#240 = APPROVAL_STATUS ( 'not_yet_approved' ) ;
#241 = SECURITY_CLASSIFICATION_LEVEL ( 'unclassified' ) ;
#242 = COORDINATED_UNIVERSAL_TIME_OFFSET ( 1, 0, .AHEAD. ) ;
#243 = CARTESIAN_POINT ( 'NONE',  ( 0.000000000000000000, 0.000000000000000000, 2.000000000000000000 ) ) ;
#244 = CC_DESIGN_PERSON_AND_ORGANIZATION_ASSIGNMENT ( #121, #40, ( #236 ) ) ;
#245 = CYLINDRICAL_SURFACE ( 'NONE', #57, 2.000000000000000000 ) ;
#246 = LOCAL_TIME ( 13, 23, 9.000000000000000000, #143 ) ;
#247 = AXIS2_PLACEMENT_3D ( 'NONE', #113, #29, #222 ) ;
#248 = CARTESIAN_POINT ( 'NONE',  ( -2.000000000000000000, 0.000000000000000000, 2.000000000000000000 ) ) ;
#249 = CYLINDRICAL_SURFACE ( 'NONE', #247, 2.000000000000000000 ) ;
#250 = CARTESIAN_POINT ( 'NONE',  ( -2.000000000000000000, 0.000000000000000000, 0.000000000000000000 ) ) ;
#251 = VERTEX_POINT ( 'NONE', #172 ) ;
#252 = AXIS2_PLACEMENT_3D ( 'NONE', #134, #36, #91 ) ;
#253 =( NAMED_UNIT ( * ) SI_UNIT ( $, .STERADIAN. ) SOLID_ANGLE_UNIT ( ) );
#254 = DIRECTION ( 'NONE',  ( -1.000000000000000000, 0.000000000000000000, 0.000000000000000000 ) ) ;
#255 = ORIENTED_EDGE ( 'NONE', *, *, #41, .F. ) ;
ENDSEC;
END-ISO-10303-21;
