ISO-10303-21;
HEADER;
FILE_DESCRIPTION (( 'STEP AP203' ),
    '1' );
FILE_NAME ('e7a1.STEP',
    '2023-02-12T11:20:25',
    ( '' ),
    ( '' ),
    'SwSTEP 2.0',
    'SolidWorks 2019',
    '' );
FILE_SCHEMA (( 'CONFIG_CONTROL_DESIGN' ));
ENDSEC;

DATA;
#1 = ORIENTED_EDGE ( 'NONE', *, *, #218, .T. ) ;
#2 = VERTEX_POINT ( 'NONE', #139 ) ;
#3 = SECURITY_CLASSIFICATION ( '', '', #15 ) ;
#4 = LINE ( 'NONE', #78, #65 ) ;
#5 = DIRECTION ( 'NONE',  ( 0.000000000000000000, 0.000000000000000000, 1.000000000000000000 ) ) ;
#6 = LOCAL_TIME ( 12, 20, 25.00000000000000000, #235 ) ;
#7 = CARTESIAN_POINT ( 'NONE',  ( 0.000000000000000000, 0.000000000000000000, 125.0000000000000000 ) ) ;
#8 = DIRECTION ( 'NONE',  ( 0.000000000000000000, 0.000000000000000000, 1.000000000000000000 ) ) ;
#9 = VECTOR ( 'NONE', #45, 1000.000000000000000 ) ;
#10 = PERSON_AND_ORGANIZATION ( #144, #152 ) ;
#11 = APPROVAL ( #71, 'NEURÈENÝ' ) ;
#12 = DIRECTION ( 'NONE',  ( 0.000000000000000000, 0.000000000000000000, 1.000000000000000000 ) ) ;
#13 = AXIS2_PLACEMENT_3D ( 'NONE', #181, #117, #115 ) ;
#14 = VERTEX_POINT ( 'NONE', #39 ) ;
#15 = SECURITY_CLASSIFICATION_LEVEL ( 'unclassified' ) ;
#16 = CALENDAR_DATE ( 2023, 12, 2 ) ;
#17 = CC_DESIGN_SECURITY_CLASSIFICATION ( #3, ( #103 ) ) ;
#18 = CARTESIAN_POINT ( 'NONE',  ( 4.000000000000000000, 4.898587196589412829E-16, 5.000000000000000000 ) ) ;
#19 = CARTESIAN_POINT ( 'NONE',  ( -7.000000000000000000, 0.000000000000000000, 5.000000000000000000 ) ) ;
#20 = VERTEX_POINT ( 'NONE', #160 ) ;
#21 = CC_DESIGN_PERSON_AND_ORGANIZATION_ASSIGNMENT ( #251, #189, ( #249 ) ) ;
#22 = VERTEX_POINT ( 'NONE', #18 ) ;
#23 = ORIENTED_EDGE ( 'NONE', *, *, #28, .T. ) ;
#24 = DIRECTION ( 'NONE',  ( 0.000000000000000000, 0.000000000000000000, 1.000000000000000000 ) ) ;
#25 = AXIS2_PLACEMENT_3D ( 'NONE', #118, #47, #246 ) ;
#26 = DIRECTION ( 'NONE',  ( 0.000000000000000000, 0.000000000000000000, 1.000000000000000000 ) ) ;
#27 = CARTESIAN_POINT ( 'NONE',  ( 0.000000000000000000, 0.000000000000000000, 0.000000000000000000 ) ) ;
#28 = EDGE_CURVE ( 'NONE', #136, #76, #146, .T. ) ;
#29 = DATE_AND_TIME ( #67, #98 ) ;
#30 = DATE_AND_TIME ( #16, #41 ) ;
#31 = AXIS2_PLACEMENT_3D ( 'NONE', #207, #245, #105 ) ;
#32 = SHAPE_DEFINITION_REPRESENTATION ( #81, #89 ) ;
#33 = CALENDAR_DATE ( 2023, 12, 2 ) ;
#34 = COORDINATED_UNIVERSAL_TIME_OFFSET ( 1, 0, .AHEAD. ) ;
#35 = EDGE_LOOP ( 'NONE', ( #23, #132 ) ) ;
#36 = PRODUCT_RELATED_PRODUCT_CATEGORY ( 'detail', '', ( #46 ) ) ;
#37 = CIRCLE ( 'NONE', #179, 7.000000000000000000 ) ;
#38 = DIRECTION ( 'NONE',  ( -1.000000000000000000, 0.000000000000000000, 0.000000000000000000 ) ) ;
#39 = CARTESIAN_POINT ( 'NONE',  ( -4.000000000000000000, 0.000000000000000000, 125.0000000000000000 ) ) ;
#40 = ORIENTED_EDGE ( 'NONE', *, *, #88, .T. ) ;
#41 = LOCAL_TIME ( 12, 20, 25.00000000000000000, #168 ) ;
#42 = PLANE ( 'NONE',  #13 ) ;
#43 = LINE ( 'NONE', #145, #9 ) ;
#44 = DIRECTION ( 'NONE',  ( 1.000000000000000000, 0.000000000000000000, 0.000000000000000000 ) ) ;
#45 = DIRECTION ( 'NONE',  ( -0.000000000000000000, -0.000000000000000000, -1.000000000000000000 ) ) ;
#46 = PRODUCT ( 'e7a1', 'e7a1', '', ( #128 ) ) ;
#47 = DIRECTION ( 'NONE',  ( -0.000000000000000000, -0.000000000000000000, -1.000000000000000000 ) ) ;
#48 = EDGE_LOOP ( 'NONE', ( #70, #169 ) ) ;
#49 = PERSON_AND_ORGANIZATION ( #144, #152 ) ;
#50 = APPROVAL_STATUS ( 'not_yet_approved' ) ;
#51 = DESIGN_CONTEXT ( 'detailed design', #91, 'design' ) ;
#52 = ADVANCED_FACE ( 'NONE', ( #75 ), #180, .T. ) ;
#53 = ORIENTED_EDGE ( 'NONE', *, *, #127, .F. ) ;
#54 = CARTESIAN_POINT ( 'NONE',  ( 0.000000000000000000, 0.000000000000000000, 125.0000000000000000 ) ) ;
#55 = ORIENTED_EDGE ( 'NONE', *, *, #124, .F. ) ;
#56 = VERTEX_POINT ( 'NONE', #116 ) ;
#57 = DIRECTION ( 'NONE',  ( -0.000000000000000000, -0.000000000000000000, -1.000000000000000000 ) ) ;
#58 = CIRCLE ( 'NONE', #93, 7.000000000000000000 ) ;
#59 = CYLINDRICAL_SURFACE ( 'NONE', #25, 7.000000000000000000 ) ;
#60 = AXIS2_PLACEMENT_3D ( 'NONE', #7, #121, #104 ) ;
#61 = FACE_OUTER_BOUND ( 'NONE', #157, .T. ) ;
#62 = FACE_OUTER_BOUND ( 'NONE', #48, .T. ) ;
#63 = AXIS2_PLACEMENT_3D ( 'NONE', #186, #8, #244 ) ;
#64 = DIRECTION ( 'NONE',  ( 1.000000000000000000, 0.000000000000000000, 0.000000000000000000 ) ) ;
#65 = VECTOR ( 'NONE', #57, 1000.000000000000000 ) ;
#66 = COORDINATED_UNIVERSAL_TIME_OFFSET ( 1, 0, .AHEAD. ) ;
#67 = CALENDAR_DATE ( 2023, 12, 2 ) ;
#68 = APPROVAL_PERSON_ORGANIZATION ( #49, #163, #255 ) ;
#69 = EDGE_CURVE ( 'NONE', #56, #22, #4, .T. ) ;
#70 = ORIENTED_EDGE ( 'NONE', *, *, #226, .T. ) ;
#71 = APPROVAL_STATUS ( 'not_yet_approved' ) ;
#72 = APPLICATION_PROTOCOL_DEFINITION ( 'international standard', 'config_control_design', 1994, #91 ) ;
#73 = FACE_OUTER_BOUND ( 'NONE', #201, .T. ) ;
#74 = CIRCLE ( 'NONE', #110, 4.000000000000000000 ) ;
#75 = FACE_OUTER_BOUND ( 'NONE', #99, .T. ) ;
#76 = VERTEX_POINT ( 'NONE', #133 ) ;
#77 = ADVANCED_FACE ( 'NONE', ( #222, #225 ), #42, .T. ) ;
#78 = CARTESIAN_POINT ( 'NONE',  ( 4.000000000000000000, 4.898587196589412829E-16, 125.0000000000000000 ) ) ;
#79 = FACE_OUTER_BOUND ( 'NONE', #195, .T. ) ;
#80 = CC_DESIGN_DATE_AND_TIME_ASSIGNMENT ( #92, #111, ( #249 ) ) ;
#81 = PRODUCT_DEFINITION_SHAPE ( 'NONE', 'NONE',  #249 ) ;
#82 = CARTESIAN_POINT ( 'NONE',  ( 0.000000000000000000, 0.000000000000000000, 125.0000000000000000 ) ) ;
#83 = DIRECTION ( 'NONE',  ( 0.000000000000000000, 0.000000000000000000, 1.000000000000000000 ) ) ;
#84 = ADVANCED_FACE ( 'NONE', ( #73 ), #153, .T. ) ;
#85 = APPLICATION_CONTEXT ( 'configuration controlled 3d designs of mechanical parts and assemblies' ) ;
#86 = PERSON_AND_ORGANIZATION_ROLE ( 'design_supplier' ) ;
#87 = APPROVAL_ROLE ( '' ) ;
#88 = EDGE_CURVE ( 'NONE', #136, #20, #199, .T. ) ;
#89 = ADVANCED_BREP_SHAPE_REPRESENTATION ( 'e7a1', ( #250, #204 ), #158 ) ;
#90 = PERSON_AND_ORGANIZATION_ROLE ( 'classification_officer' ) ;
#91 = APPLICATION_CONTEXT ( 'configuration controlled 3d designs of mechanical parts and assemblies' ) ;
#92 = DATE_AND_TIME ( #33, #6 ) ;
#93 = AXIS2_PLACEMENT_3D ( 'NONE', #212, #24, #102 ) ;
#94 = DIRECTION ( 'NONE',  ( -0.000000000000000000, -0.000000000000000000, -1.000000000000000000 ) ) ;
#95 = APPROVAL_STATUS ( 'not_yet_approved' ) ;
#96 = DIRECTION ( 'NONE',  ( -0.000000000000000000, -0.000000000000000000, -1.000000000000000000 ) ) ;
#97 = DIRECTION ( 'NONE',  ( 0.000000000000000000, 0.000000000000000000, 1.000000000000000000 ) ) ;
#98 = LOCAL_TIME ( 12, 20, 25.00000000000000000, #34 ) ;
#99 = EDGE_LOOP ( 'NONE', ( #53, #202, #174, #159 ) ) ;
#100 = EDGE_LOOP ( 'NONE', ( #137, #113, #1, #220 ) ) ;
#101 = CC_DESIGN_PERSON_AND_ORGANIZATION_ASSIGNMENT ( #10, #191, ( #103 ) ) ;
#102 = DIRECTION ( 'NONE',  ( 1.000000000000000000, 0.000000000000000000, 0.000000000000000000 ) ) ;
#103 = PRODUCT_DEFINITION_FORMATION_WITH_SPECIFIED_SOURCE ( 'LIBOVOLNÝ', '', #46, .NOT_KNOWN. ) ;
#104 = DIRECTION ( 'NONE',  ( 1.000000000000000000, 0.000000000000000000, -0.000000000000000000 ) ) ;
#105 = DIRECTION ( 'NONE',  ( -1.000000000000000000, 0.000000000000000000, 0.000000000000000000 ) ) ;
#106 = AXIS2_PLACEMENT_3D ( 'NONE', #177, #5, #119 ) ;
#107 = DIRECTION ( 'NONE',  ( 0.000000000000000000, 0.000000000000000000, 1.000000000000000000 ) ) ;
#108 = DIRECTION ( 'NONE',  ( 1.000000000000000000, 0.000000000000000000, 0.000000000000000000 ) ) ;
#109 = CC_DESIGN_PERSON_AND_ORGANIZATION_ASSIGNMENT ( #167, #86, ( #103 ) ) ;
#110 = AXIS2_PLACEMENT_3D ( 'NONE', #82, #83, #44 ) ;
#111 = DATE_TIME_ROLE ( 'creation_date' ) ;
#112 = APPROVAL_PERSON_ORGANIZATION ( #238, #155, #130 ) ;
#113 = ORIENTED_EDGE ( 'NONE', *, *, #226, .F. ) ;
#114 = DIRECTION ( 'NONE',  ( -0.000000000000000000, -0.000000000000000000, -1.000000000000000000 ) ) ;
#115 = DIRECTION ( 'NONE',  ( 1.000000000000000000, 0.000000000000000000, -0.000000000000000000 ) ) ;
#116 = CARTESIAN_POINT ( 'NONE',  ( 4.000000000000000000, 4.898587196589412829E-16, 125.0000000000000000 ) ) ;
#117 = DIRECTION ( 'NONE',  ( 0.000000000000000000, 0.000000000000000000, 1.000000000000000000 ) ) ;
#118 = CARTESIAN_POINT ( 'NONE',  ( 0.000000000000000000, 0.000000000000000000, 5.000000000000000000 ) ) ;
#119 = DIRECTION ( 'NONE',  ( 1.000000000000000000, 0.000000000000000000, 0.000000000000000000 ) ) ;
#120 = DIRECTION ( 'NONE',  ( 0.000000000000000000, 0.000000000000000000, 1.000000000000000000 ) ) ;
#121 = DIRECTION ( 'NONE',  ( 0.000000000000000000, 0.000000000000000000, 1.000000000000000000 ) ) ;
#122 = AXIS2_PLACEMENT_3D ( 'NONE', #185, #107, #143 ) ;
#123 = CIRCLE ( 'NONE', #122, 4.000000000000000000 ) ;
#124 = EDGE_CURVE ( 'NONE', #2, #22, #233, .T. ) ;
#125 = ORIENTED_EDGE ( 'NONE', *, *, #237, .T. ) ;
#126 = DIRECTION ( 'NONE',  ( 1.000000000000000000, 0.000000000000000000, 0.000000000000000000 ) ) ;
#127 = EDGE_CURVE ( 'NONE', #56, #14, #74, .T. ) ;
#128 = MECHANICAL_CONTEXT ( 'NONE', #85, 'mechanical' ) ;
#129 = UNCERTAINTY_MEASURE_WITH_UNIT (LENGTH_MEASURE( 1.000000000000000082E-05 ), #161, 'distance_accuracy_value', 'NONE');
#130 = APPROVAL_ROLE ( '' ) ;
#131 = EDGE_LOOP ( 'NONE', ( #55, #205 ) ) ;
#132 = ORIENTED_EDGE ( 'NONE', *, *, #243, .T. ) ;
#133 = CARTESIAN_POINT ( 'NONE',  ( 7.000000000000000000, 8.572527594031473190E-16, 5.000000000000000000 ) ) ;
#134 = CC_DESIGN_DATE_AND_TIME_ASSIGNMENT ( #231, #234, ( #3 ) ) ;
#135 = LOCAL_TIME ( 12, 20, 25.00000000000000000, #194 ) ;
#136 = VERTEX_POINT ( 'NONE', #209 ) ;
#137 = ORIENTED_EDGE ( 'NONE', *, *, #69, .F. ) ;
#138 = CC_DESIGN_PERSON_AND_ORGANIZATION_ASSIGNMENT ( #248, #90, ( #3 ) ) ;
#139 = CARTESIAN_POINT ( 'NONE',  ( -4.000000000000000000, 0.000000000000000000, 5.000000000000000000 ) ) ;
#140 = CARTESIAN_POINT ( 'NONE',  ( 0.000000000000000000, 0.000000000000000000, 0.000000000000000000 ) ) ;
#141 = CYLINDRICAL_SURFACE ( 'NONE', #31, 4.000000000000000000 ) ;
#142 = FACE_OUTER_BOUND ( 'NONE', #100, .T. ) ;
#143 = DIRECTION ( 'NONE',  ( 1.000000000000000000, 0.000000000000000000, 0.000000000000000000 ) ) ;
#144 = PERSON ( 'NEURÈENÝ', 'NEURÈENÝ', 'NEURÈENÝ', ('NEURÈENÝ'), ('NEURÈENÝ'), ('NEURÈENÝ') ) ;
#145 = CARTESIAN_POINT ( 'NONE',  ( 7.000000000000000000, 8.572527594031473190E-16, 5.000000000000000000 ) ) ;
#146 = CIRCLE ( 'NONE', #214, 7.000000000000000000 ) ;
#147 = ADVANCED_FACE ( 'NONE', ( #61 ), #59, .T. ) ;
#148 = CARTESIAN_POINT ( 'NONE',  ( 0.000000000000000000, 0.000000000000000000, 0.000000000000000000 ) ) ;
#149 = APPROVAL_DATE_TIME ( #29, #155 ) ;
#150 = APPROVAL_DATE_TIME ( #30, #11 ) ;
#151 = PERSON_AND_ORGANIZATION ( #144, #152 ) ;
#152 = ORGANIZATION ( 'NEURÈENÝ', 'NEURÈENÝ', '' ) ;
#153 = CYLINDRICAL_SURFACE ( 'NONE', #228, 7.000000000000000000 ) ;
#154 = CALENDAR_DATE ( 2023, 12, 2 ) ;
#155 = APPROVAL ( #50, 'NEURÈENÝ' ) ;
#156 = ORIENTED_EDGE ( 'NONE', *, *, #243, .F. ) ;
#157 = EDGE_LOOP ( 'NONE', ( #232, #190, #40, #252 ) ) ;
#158 =( GEOMETRIC_REPRESENTATION_CONTEXT ( 3 ) GLOBAL_UNCERTAINTY_ASSIGNED_CONTEXT ( ( #129 ) ) GLOBAL_UNIT_ASSIGNED_CONTEXT ( ( #161, #184, #254 ) ) REPRESENTATION_CONTEXT ( 'NONE', 'WORKASPACE' ) );
#159 = ORIENTED_EDGE ( 'NONE', *, *, #218, .F. ) ;
#160 = CARTESIAN_POINT ( 'NONE',  ( -7.000000000000000000, 0.000000000000000000, 0.000000000000000000 ) ) ;
#161 =( LENGTH_UNIT ( ) NAMED_UNIT ( * ) SI_UNIT ( .MILLI., .METRE. ) );
#162 = DIRECTION ( 'NONE',  ( -0.000000000000000000, -0.000000000000000000, -1.000000000000000000 ) ) ;
#163 = APPROVAL ( #95, 'NEURÈENÝ' ) ;
#164 = LINE ( 'NONE', #166, #210 ) ;
#165 = CIRCLE ( 'NONE', #63, 7.000000000000000000 ) ;
#166 = CARTESIAN_POINT ( 'NONE',  ( -4.000000000000000000, 0.000000000000000000, 125.0000000000000000 ) ) ;
#167 = PERSON_AND_ORGANIZATION ( #144, #152 ) ;
#168 = COORDINATED_UNIVERSAL_TIME_OFFSET ( 1, 0, .AHEAD. ) ;
#169 = ORIENTED_EDGE ( 'NONE', *, *, #127, .T. ) ;
#170 = CALENDAR_DATE ( 2023, 12, 2 ) ;
#171 = CC_DESIGN_APPROVAL ( #163, ( #3 ) ) ;
#172 = ORIENTED_EDGE ( 'NONE', *, *, #253, .F. ) ;
#173 = ADVANCED_FACE ( 'NONE', ( #142 ), #141, .T. ) ;
#174 = ORIENTED_EDGE ( 'NONE', *, *, #197, .T. ) ;
#175 = APPROVAL_DATE_TIME ( #192, #163 ) ;
#176 = AXIS2_PLACEMENT_3D ( 'NONE', #140, #120, #215 ) ;
#177 = CARTESIAN_POINT ( 'NONE',  ( 0.000000000000000000, 0.000000000000000000, 5.000000000000000000 ) ) ;
#178 = DIRECTION ( 'NONE',  ( 1.000000000000000000, 0.000000000000000000, 0.000000000000000000 ) ) ;
#179 = AXIS2_PLACEMENT_3D ( 'NONE', #27, #247, #108 ) ;
#180 = CYLINDRICAL_SURFACE ( 'NONE', #200, 4.000000000000000000 ) ;
#181 = CARTESIAN_POINT ( 'NONE',  ( 0.000000000000000000, 0.000000000000000000, 5.000000000000000000 ) ) ;
#182 = APPROVAL_PERSON_ORGANIZATION ( #151, #11, #87 ) ;
#183 = ADVANCED_FACE ( 'NONE', ( #79 ), #229, .F. ) ;
#184 =( NAMED_UNIT ( * ) PLANE_ANGLE_UNIT ( ) SI_UNIT ( $, .RADIAN. ) );
#185 = CARTESIAN_POINT ( 'NONE',  ( 0.000000000000000000, 0.000000000000000000, 125.0000000000000000 ) ) ;
#186 = CARTESIAN_POINT ( 'NONE',  ( 0.000000000000000000, 0.000000000000000000, 5.000000000000000000 ) ) ;
#187 = ADVANCED_FACE ( 'NONE', ( #62 ), #227, .T. ) ;
#188 = AXIS2_PLACEMENT_3D ( 'NONE', #213, #26, #64 ) ;
#189 = PERSON_AND_ORGANIZATION_ROLE ( 'creator' ) ;
#190 = ORIENTED_EDGE ( 'NONE', *, *, #28, .F. ) ;
#191 = PERSON_AND_ORGANIZATION_ROLE ( 'creator' ) ;
#192 = DATE_AND_TIME ( #154, #135 ) ;
#193 = LOCAL_TIME ( 12, 20, 25.00000000000000000, #66 ) ;
#194 = COORDINATED_UNIVERSAL_TIME_OFFSET ( 1, 0, .AHEAD. ) ;
#195 = EDGE_LOOP ( 'NONE', ( #241, #172 ) ) ;
#196 = ORIENTED_EDGE ( 'NONE', *, *, #88, .F. ) ;
#197 = EDGE_CURVE ( 'NONE', #22, #2, #203, .T. ) ;
#198 = CARTESIAN_POINT ( 'NONE',  ( 0.000000000000000000, 0.000000000000000000, 5.000000000000000000 ) ) ;
#199 = LINE ( 'NONE', #19, #224 ) ;
#200 = AXIS2_PLACEMENT_3D ( 'NONE', #54, #114, #242 ) ;
#201 = EDGE_LOOP ( 'NONE', ( #156, #125, #239, #196 ) ) ;
#202 = ORIENTED_EDGE ( 'NONE', *, *, #69, .T. ) ;
#203 = CIRCLE ( 'NONE', #188, 4.000000000000000000 ) ;
#204 = AXIS2_PLACEMENT_3D ( 'NONE', #148, #12, #126 ) ;
#205 = ORIENTED_EDGE ( 'NONE', *, *, #197, .F. ) ;
#206 = CLOSED_SHELL ( 'NONE', ( #52, #84, #147, #77, #183, #173, #187 ) ) ;
#207 = CARTESIAN_POINT ( 'NONE',  ( 0.000000000000000000, 0.000000000000000000, 125.0000000000000000 ) ) ;
#208 = EDGE_CURVE ( 'NONE', #20, #236, #58, .T. ) ;
#209 = CARTESIAN_POINT ( 'NONE',  ( -7.000000000000000000, 0.000000000000000000, 5.000000000000000000 ) ) ;
#210 = VECTOR ( 'NONE', #162, 1000.000000000000000 ) ;
#211 = CC_DESIGN_APPROVAL ( #155, ( #103 ) ) ;
#212 = CARTESIAN_POINT ( 'NONE',  ( 0.000000000000000000, 0.000000000000000000, 0.000000000000000000 ) ) ;
#213 = CARTESIAN_POINT ( 'NONE',  ( 0.000000000000000000, 0.000000000000000000, 5.000000000000000000 ) ) ;
#214 = AXIS2_PLACEMENT_3D ( 'NONE', #240, #97, #178 ) ;
#215 = DIRECTION ( 'NONE',  ( 1.000000000000000000, 0.000000000000000000, -0.000000000000000000 ) ) ;
#216 = PERSON_AND_ORGANIZATION_ROLE ( 'design_owner' ) ;
#217 = APPLICATION_PROTOCOL_DEFINITION ( 'international standard', 'config_control_design', 1994, #85 ) ;
#218 = EDGE_CURVE ( 'NONE', #14, #2, #164, .T. ) ;
#219 = PERSON_AND_ORGANIZATION ( #144, #152 ) ;
#220 = ORIENTED_EDGE ( 'NONE', *, *, #124, .T. ) ;
#221 = CC_DESIGN_APPROVAL ( #11, ( #249 ) ) ;
#222 = FACE_BOUND ( 'NONE', #131, .T. ) ;
#223 = CC_DESIGN_PERSON_AND_ORGANIZATION_ASSIGNMENT ( #219, #216, ( #46 ) ) ;
#224 = VECTOR ( 'NONE', #96, 1000.000000000000000 ) ;
#225 = FACE_OUTER_BOUND ( 'NONE', #35, .T. ) ;
#226 = EDGE_CURVE ( 'NONE', #14, #56, #123, .T. ) ;
#227 = PLANE ( 'NONE',  #60 ) ;
#228 = AXIS2_PLACEMENT_3D ( 'NONE', #198, #94, #38 ) ;
#229 = PLANE ( 'NONE',  #176 ) ;
#230 = CARTESIAN_POINT ( 'NONE',  ( 7.000000000000000000, 8.572527594031473190E-16, 0.000000000000000000 ) ) ;
#231 = DATE_AND_TIME ( #170, #193 ) ;
#232 = ORIENTED_EDGE ( 'NONE', *, *, #237, .F. ) ;
#233 = CIRCLE ( 'NONE', #106, 4.000000000000000000 ) ;
#234 = DATE_TIME_ROLE ( 'classification_date' ) ;
#235 = COORDINATED_UNIVERSAL_TIME_OFFSET ( 1, 0, .AHEAD. ) ;
#236 = VERTEX_POINT ( 'NONE', #230 ) ;
#237 = EDGE_CURVE ( 'NONE', #76, #236, #43, .T. ) ;
#238 = PERSON_AND_ORGANIZATION ( #144, #152 ) ;
#239 = ORIENTED_EDGE ( 'NONE', *, *, #253, .T. ) ;
#240 = CARTESIAN_POINT ( 'NONE',  ( 0.000000000000000000, 0.000000000000000000, 5.000000000000000000 ) ) ;
#241 = ORIENTED_EDGE ( 'NONE', *, *, #208, .F. ) ;
#242 = DIRECTION ( 'NONE',  ( -1.000000000000000000, 0.000000000000000000, 0.000000000000000000 ) ) ;
#243 = EDGE_CURVE ( 'NONE', #76, #136, #165, .T. ) ;
#244 = DIRECTION ( 'NONE',  ( 1.000000000000000000, 0.000000000000000000, 0.000000000000000000 ) ) ;
#245 = DIRECTION ( 'NONE',  ( -0.000000000000000000, -0.000000000000000000, -1.000000000000000000 ) ) ;
#246 = DIRECTION ( 'NONE',  ( -1.000000000000000000, 0.000000000000000000, 0.000000000000000000 ) ) ;
#247 = DIRECTION ( 'NONE',  ( 0.000000000000000000, 0.000000000000000000, 1.000000000000000000 ) ) ;
#248 = PERSON_AND_ORGANIZATION ( #144, #152 ) ;
#249 = PRODUCT_DEFINITION ( 'NEZNÁMÝ', '', #103, #51 ) ;
#250 = MANIFOLD_SOLID_BREP ( 'Pøidat vysunutím3', #206 ) ;
#251 = PERSON_AND_ORGANIZATION ( #144, #152 ) ;
#252 = ORIENTED_EDGE ( 'NONE', *, *, #208, .T. ) ;
#253 = EDGE_CURVE ( 'NONE', #236, #20, #37, .T. ) ;
#254 =( NAMED_UNIT ( * ) SI_UNIT ( $, .STERADIAN. ) SOLID_ANGLE_UNIT ( ) );
#255 = APPROVAL_ROLE ( '' ) ;
ENDSEC;
END-ISO-10303-21;
