ISO-10303-21;
HEADER;
FILE_DESCRIPTION (( 'STEP AP203' ),
    '1' );
FILE_NAME ('3913.STEP',
    '2023-02-12T11:39:17',
    ( '' ),
    ( '' ),
    'SwSTEP 2.0',
    'SolidWorks 2019',
    '' );
FILE_SCHEMA (( 'CONFIG_CONTROL_DESIGN' ));
ENDSEC;

DATA;
#1 = DIRECTION ( 'NONE',  ( -0.000000000000000000, -0.000000000000000000, -1.000000000000000000 ) ) ;
#2 = LOCAL_TIME ( 12, 39, 17.00000000000000000, #9 ) ;
#3 = CARTESIAN_POINT ( 'NONE',  ( 6.000000000000000888, 7.347880794884120722E-16, 5.000000000000000000 ) ) ;
#4 = DIRECTION ( 'NONE',  ( 1.000000000000000000, 0.000000000000000000, 0.000000000000000000 ) ) ;
#5 = APPROVAL_DATE_TIME ( #43, #18 ) ;
#6 = COORDINATED_UNIVERSAL_TIME_OFFSET ( 1, 0, .AHEAD. ) ;
#7 = APPROVAL_ROLE ( '' ) ;
#8 = COORDINATED_UNIVERSAL_TIME_OFFSET ( 1, 0, .AHEAD. ) ;
#9 = COORDINATED_UNIVERSAL_TIME_OFFSET ( 1, 0, .AHEAD. ) ;
#10 = DIRECTION ( 'NONE',  ( 0.000000000000000000, 0.000000000000000000, 1.000000000000000000 ) ) ;
#11 = VERTEX_POINT ( 'NONE', #108 ) ;
#12 = CARTESIAN_POINT ( 'NONE',  ( 0.000000000000000000, 0.000000000000000000, 5.000000000000000000 ) ) ;
#13 = DIRECTION ( 'NONE',  ( -0.000000000000000000, -0.000000000000000000, -1.000000000000000000 ) ) ;
#14 = LINE ( 'NONE', #156, #217 ) ;
#15 = PERSON_AND_ORGANIZATION_ROLE ( 'creator' ) ;
#16 = PERSON_AND_ORGANIZATION ( #234, #118 ) ;
#17 = DIRECTION ( 'NONE',  ( -1.000000000000000000, 0.000000000000000000, 0.000000000000000000 ) ) ;
#18 = APPROVAL ( #252, 'NEURÈENÝ' ) ;
#19 = APPROVAL ( #245, 'NEURÈENÝ' ) ;
#20 = VERTEX_POINT ( 'NONE', #111 ) ;
#21 = AXIS2_PLACEMENT_3D ( 'NONE', #38, #180, #78 ) ;
#22 = ORIENTED_EDGE ( 'NONE', *, *, #138, .T. ) ;
#23 = ORIENTED_EDGE ( 'NONE', *, *, #241, .T. ) ;
#24 = ADVANCED_FACE ( 'NONE', ( #232 ), #151, .T. ) ;
#25 = ORIENTED_EDGE ( 'NONE', *, *, #241, .F. ) ;
#26 = LINE ( 'NONE', #3, #122 ) ;
#27 = COORDINATED_UNIVERSAL_TIME_OFFSET ( 1, 0, .AHEAD. ) ;
#28 = PERSON_AND_ORGANIZATION_ROLE ( 'classification_officer' ) ;
#29 = EDGE_CURVE ( 'NONE', #230, #77, #212, .T. ) ;
#30 = AXIS2_PLACEMENT_3D ( 'NONE', #71, #246, #110 ) ;
#31 =( GEOMETRIC_REPRESENTATION_CONTEXT ( 3 ) GLOBAL_UNCERTAINTY_ASSIGNED_CONTEXT ( ( #240 ) ) GLOBAL_UNIT_ASSIGNED_CONTEXT ( ( #154, #127, #236 ) ) REPRESENTATION_CONTEXT ( 'NONE', 'WORKASPACE' ) );
#32 = CALENDAR_DATE ( 2023, 12, 2 ) ;
#33 = MECHANICAL_CONTEXT ( 'NONE', #242, 'mechanical' ) ;
#34 = EDGE_CURVE ( 'NONE', #11, #45, #164, .T. ) ;
#35 = AXIS2_PLACEMENT_3D ( 'NONE', #145, #46, #218 ) ;
#36 = DIRECTION ( 'NONE',  ( -1.000000000000000000, 0.000000000000000000, 0.000000000000000000 ) ) ;
#37 = CARTESIAN_POINT ( 'NONE',  ( -6.000000000000000888, 0.000000000000000000, 5.000000000000000000 ) ) ;
#38 = CARTESIAN_POINT ( 'NONE',  ( 0.000000000000000000, 0.000000000000000000, 5.000000000000000000 ) ) ;
#39 = LOCAL_TIME ( 12, 39, 17.00000000000000000, #27 ) ;
#40 = ORIENTED_EDGE ( 'NONE', *, *, #167, .T. ) ;
#41 = CARTESIAN_POINT ( 'NONE',  ( -6.000000000000000888, 0.000000000000000000, 0.000000000000000000 ) ) ;
#42 = CC_DESIGN_APPROVAL ( #18, ( #116 ) ) ;
#43 = DATE_AND_TIME ( #126, #92 ) ;
#44 = LINE ( 'NONE', #37, #160 ) ;
#45 = VERTEX_POINT ( 'NONE', #98 ) ;
#46 = DIRECTION ( 'NONE',  ( 0.000000000000000000, 0.000000000000000000, 1.000000000000000000 ) ) ;
#47 = DIRECTION ( 'NONE',  ( 1.000000000000000000, 0.000000000000000000, -0.000000000000000000 ) ) ;
#48 = AXIS2_PLACEMENT_3D ( 'NONE', #94, #76, #202 ) ;
#49 = ORIENTED_EDGE ( 'NONE', *, *, #34, .T. ) ;
#50 = SHAPE_DEFINITION_REPRESENTATION ( #89, #190 ) ;
#51 = CARTESIAN_POINT ( 'NONE',  ( 0.000000000000000000, 0.000000000000000000, 5.000000000000000000 ) ) ;
#52 = DIRECTION ( 'NONE',  ( 0.000000000000000000, 0.000000000000000000, 1.000000000000000000 ) ) ;
#53 = CIRCLE ( 'NONE', #251, 3.100000000000000089 ) ;
#54 = LOCAL_TIME ( 12, 39, 17.00000000000000000, #128 ) ;
#55 = APPROVAL_ROLE ( '' ) ;
#56 = CARTESIAN_POINT ( 'NONE',  ( 0.000000000000000000, 0.000000000000000000, 0.000000000000000000 ) ) ;
#57 = CC_DESIGN_PERSON_AND_ORGANIZATION_ASSIGNMENT ( #16, #209, ( #125 ) ) ;
#58 = AXIS2_PLACEMENT_3D ( 'NONE', #51, #90, #4 ) ;
#59 = SECURITY_CLASSIFICATION ( '', '', #247 ) ;
#60 = CC_DESIGN_PERSON_AND_ORGANIZATION_ASSIGNMENT ( #249, #136, ( #152 ) ) ;
#61 = DIRECTION ( 'NONE',  ( -0.000000000000000000, -0.000000000000000000, -1.000000000000000000 ) ) ;
#62 = EDGE_CURVE ( 'NONE', #101, #11, #53, .T. ) ;
#63 = CIRCLE ( 'NONE', #100, 3.100000000000000089 ) ;
#64 = EDGE_CURVE ( 'NONE', #195, #20, #81, .T. ) ;
#65 = DIRECTION ( 'NONE',  ( 1.000000000000000000, 0.000000000000000000, 0.000000000000000000 ) ) ;
#66 = ORIENTED_EDGE ( 'NONE', *, *, #201, .T. ) ;
#67 = DATE_AND_TIME ( #32, #39 ) ;
#68 = CIRCLE ( 'NONE', #58, 6.000000000000000888 ) ;
#69 = CC_DESIGN_PERSON_AND_ORGANIZATION_ASSIGNMENT ( #175, #15, ( #116 ) ) ;
#70 = CIRCLE ( 'NONE', #225, 3.100000000000000089 ) ;
#71 = CARTESIAN_POINT ( 'NONE',  ( 0.000000000000000000, 0.000000000000000000, 100.0000000000000000 ) ) ;
#72 = ORIENTED_EDGE ( 'NONE', *, *, #113, .F. ) ;
#73 = DIRECTION ( 'NONE',  ( 0.000000000000000000, 0.000000000000000000, 1.000000000000000000 ) ) ;
#74 = DIRECTION ( 'NONE',  ( 1.000000000000000000, 0.000000000000000000, 0.000000000000000000 ) ) ;
#75 = CARTESIAN_POINT ( 'NONE',  ( 0.000000000000000000, 0.000000000000000000, 100.0000000000000000 ) ) ;
#76 = DIRECTION ( 'NONE',  ( 0.000000000000000000, 0.000000000000000000, 1.000000000000000000 ) ) ;
#77 = VERTEX_POINT ( 'NONE', #41 ) ;
#78 = DIRECTION ( 'NONE',  ( 1.000000000000000000, 0.000000000000000000, 0.000000000000000000 ) ) ;
#79 = DESIGN_CONTEXT ( 'detailed design', #192, 'design' ) ;
#80 = CARTESIAN_POINT ( 'NONE',  ( 3.100000000000000089, 3.796405077356794918E-16, 100.0000000000000000 ) ) ;
#81 = CIRCLE ( 'NONE', #21, 6.000000000000000888 ) ;
#82 = ADVANCED_FACE ( 'NONE', ( #176 ), #155, .T. ) ;
#83 = ORIENTED_EDGE ( 'NONE', *, *, #62, .T. ) ;
#84 = EDGE_LOOP ( 'NONE', ( #105, #83 ) ) ;
#85 = ADVANCED_FACE ( 'NONE', ( #88 ), #130, .T. ) ;
#86 = DIRECTION ( 'NONE',  ( 0.000000000000000000, 0.000000000000000000, 1.000000000000000000 ) ) ;
#87 = EDGE_LOOP ( 'NONE', ( #244, #150 ) ) ;
#88 = FACE_OUTER_BOUND ( 'NONE', #179, .T. ) ;
#89 = PRODUCT_DEFINITION_SHAPE ( 'NONE', 'NONE',  #116 ) ;
#90 = DIRECTION ( 'NONE',  ( 0.000000000000000000, 0.000000000000000000, 1.000000000000000000 ) ) ;
#91 = DIRECTION ( 'NONE',  ( -0.000000000000000000, -0.000000000000000000, -1.000000000000000000 ) ) ;
#92 = LOCAL_TIME ( 12, 39, 17.00000000000000000, #6 ) ;
#93 = PERSON_AND_ORGANIZATION ( #234, #118 ) ;
#94 = CARTESIAN_POINT ( 'NONE',  ( 0.000000000000000000, 0.000000000000000000, 0.000000000000000000 ) ) ;
#95 = CC_DESIGN_DATE_AND_TIME_ASSIGNMENT ( #208, #158, ( #116 ) ) ;
#96 = DIRECTION ( 'NONE',  ( -1.000000000000000000, 0.000000000000000000, 0.000000000000000000 ) ) ;
#97 = AXIS2_PLACEMENT_3D ( 'NONE', #121, #10, #248 ) ;
#98 = CARTESIAN_POINT ( 'NONE',  ( -3.100000000000000089, 0.000000000000000000, 5.000000000000000000 ) ) ;
#99 = ORIENTED_EDGE ( 'NONE', *, *, #64, .F. ) ;
#100 = AXIS2_PLACEMENT_3D ( 'NONE', #186, #86, #65 ) ;
#101 = VERTEX_POINT ( 'NONE', #80 ) ;
#102 = APPROVAL ( #222, 'NEURÈENÝ' ) ;
#103 = PERSON_AND_ORGANIZATION ( #234, #118 ) ;
#104 = ORIENTED_EDGE ( 'NONE', *, *, #201, .F. ) ;
#105 = ORIENTED_EDGE ( 'NONE', *, *, #147, .T. ) ;
#106 = ADVANCED_FACE ( 'NONE', ( #163 ), #140, .T. ) ;
#107 = APPROVAL_PERSON_ORGANIZATION ( #161, #102, #55 ) ;
#108 = CARTESIAN_POINT ( 'NONE',  ( -3.100000000000000089, 0.000000000000000000, 100.0000000000000000 ) ) ;
#109 = DIRECTION ( 'NONE',  ( -0.000000000000000000, -0.000000000000000000, -1.000000000000000000 ) ) ;
#110 = DIRECTION ( 'NONE',  ( 1.000000000000000000, 0.000000000000000000, -0.000000000000000000 ) ) ;
#111 = CARTESIAN_POINT ( 'NONE',  ( -6.000000000000000888, 0.000000000000000000, 5.000000000000000000 ) ) ;
#112 = APPROVAL_PERSON_ORGANIZATION ( #103, #18, #215 ) ;
#113 = EDGE_CURVE ( 'NONE', #101, #169, #14, .T. ) ;
#114 = ORIENTED_EDGE ( 'NONE', *, *, #62, .F. ) ;
#115 = AXIS2_PLACEMENT_3D ( 'NONE', #133, #91, #36 ) ;
#116 = PRODUCT_DEFINITION ( 'NEZNÁMÝ', '', #152, #79 ) ;
#117 = DIRECTION ( 'NONE',  ( -0.000000000000000000, -0.000000000000000000, -1.000000000000000000 ) ) ;
#118 = ORGANIZATION ( 'NEURÈENÝ', 'NEURÈENÝ', '' ) ;
#119 = ADVANCED_FACE ( 'NONE', ( #207 ), #229, .T. ) ;
#120 = AXIS2_PLACEMENT_3D ( 'NONE', #12, #226, #96 ) ;
#121 = CARTESIAN_POINT ( 'NONE',  ( 0.000000000000000000, 0.000000000000000000, 0.000000000000000000 ) ) ;
#122 = VECTOR ( 'NONE', #109, 1000.000000000000000 ) ;
#123 = CARTESIAN_POINT ( 'NONE',  ( 6.000000000000000888, 7.347880794884120722E-16, 5.000000000000000000 ) ) ;
#124 = VECTOR ( 'NONE', #13, 1000.000000000000000 ) ;
#125 = PRODUCT ( '3913', '3913', '', ( #33 ) ) ;
#126 = CALENDAR_DATE ( 2023, 12, 2 ) ;
#127 =( NAMED_UNIT ( * ) PLANE_ANGLE_UNIT ( ) SI_UNIT ( $, .RADIAN. ) );
#128 = COORDINATED_UNIVERSAL_TIME_OFFSET ( 1, 0, .AHEAD. ) ;
#129 = CARTESIAN_POINT ( 'NONE',  ( 0.000000000000000000, 0.000000000000000000, 100.0000000000000000 ) ) ;
#130 = CYLINDRICAL_SURFACE ( 'NONE', #115, 3.100000000000000089 ) ;
#131 = DIRECTION ( 'NONE',  ( 0.000000000000000000, 0.000000000000000000, 1.000000000000000000 ) ) ;
#132 = CC_DESIGN_APPROVAL ( #19, ( #59 ) ) ;
#133 = CARTESIAN_POINT ( 'NONE',  ( 0.000000000000000000, 0.000000000000000000, 100.0000000000000000 ) ) ;
#134 = DIRECTION ( 'NONE',  ( 1.000000000000000000, 0.000000000000000000, 0.000000000000000000 ) ) ;
#135 = APPROVAL_DATE_TIME ( #199, #102 ) ;
#136 = PERSON_AND_ORGANIZATION_ROLE ( 'design_supplier' ) ;
#137 = CARTESIAN_POINT ( 'NONE',  ( 0.000000000000000000, 0.000000000000000000, 5.000000000000000000 ) ) ;
#138 = EDGE_CURVE ( 'NONE', #20, #195, #68, .T. ) ;
#139 = CLOSED_SHELL ( 'NONE', ( #106, #119, #24, #181, #224, #85, #82 ) ) ;
#140 = CYLINDRICAL_SURFACE ( 'NONE', #255, 3.100000000000000089 ) ;
#141 = ORIENTED_EDGE ( 'NONE', *, *, #29, .T. ) ;
#142 = CC_DESIGN_PERSON_AND_ORGANIZATION_ASSIGNMENT ( #221, #28, ( #59 ) ) ;
#143 = FACE_OUTER_BOUND ( 'NONE', #159, .T. ) ;
#144 = AXIS2_PLACEMENT_3D ( 'NONE', #185, #146, #47 ) ;
#145 = CARTESIAN_POINT ( 'NONE',  ( 0.000000000000000000, 0.000000000000000000, 5.000000000000000000 ) ) ;
#146 = DIRECTION ( 'NONE',  ( 0.000000000000000000, 0.000000000000000000, 1.000000000000000000 ) ) ;
#147 = EDGE_CURVE ( 'NONE', #11, #101, #70, .T. ) ;
#148 = CALENDAR_DATE ( 2023, 12, 2 ) ;
#149 = APPLICATION_PROTOCOL_DEFINITION ( 'international standard', 'config_control_design', 1994, #242 ) ;
#150 = ORIENTED_EDGE ( 'NONE', *, *, #171, .F. ) ;
#151 = CYLINDRICAL_SURFACE ( 'NONE', #120, 6.000000000000000888 ) ;
#152 = PRODUCT_DEFINITION_FORMATION_WITH_SPECIFIED_SOURCE ( 'LIBOVOLNÝ', '', #125, .NOT_KNOWN. ) ;
#153 = CALENDAR_DATE ( 2023, 12, 2 ) ;
#154 =( LENGTH_UNIT ( ) NAMED_UNIT ( * ) SI_UNIT ( .MILLI., .METRE. ) );
#155 = PLANE ( 'NONE',  #30 ) ;
#156 = CARTESIAN_POINT ( 'NONE',  ( 3.100000000000000089, 3.796405077356794918E-16, 100.0000000000000000 ) ) ;
#157 = DIRECTION ( 'NONE',  ( 0.000000000000000000, 0.000000000000000000, 1.000000000000000000 ) ) ;
#158 = DATE_TIME_ROLE ( 'creation_date' ) ;
#159 = EDGE_LOOP ( 'NONE', ( #22, #210 ) ) ;
#160 = VECTOR ( 'NONE', #1, 1000.000000000000000 ) ;
#161 = PERSON_AND_ORGANIZATION ( #234, #118 ) ;
#162 = DIRECTION ( 'NONE',  ( -1.000000000000000000, 0.000000000000000000, 0.000000000000000000 ) ) ;
#163 = FACE_OUTER_BOUND ( 'NONE', #216, .T. ) ;
#164 = LINE ( 'NONE', #238, #124 ) ;
#165 = AXIS2_PLACEMENT_3D ( 'NONE', #223, #131, #74 ) ;
#166 = EDGE_LOOP ( 'NONE', ( #25, #168 ) ) ;
#167 = EDGE_CURVE ( 'NONE', #20, #77, #44, .T. ) ;
#168 = ORIENTED_EDGE ( 'NONE', *, *, #29, .F. ) ;
#169 = VERTEX_POINT ( 'NONE', #196 ) ;
#170 = EDGE_LOOP ( 'NONE', ( #104, #183, #40, #23 ) ) ;
#171 = EDGE_CURVE ( 'NONE', #169, #45, #63, .T. ) ;
#172 = ORIENTED_EDGE ( 'NONE', *, *, #171, .T. ) ;
#173 = DATE_AND_TIME ( #148, #197 ) ;
#174 = PLANE ( 'NONE',  #97 ) ;
#175 = PERSON_AND_ORGANIZATION ( #234, #118 ) ;
#176 = FACE_OUTER_BOUND ( 'NONE', #84, .T. ) ;
#177 = PERSON_AND_ORGANIZATION_ROLE ( 'creator' ) ;
#178 = DIRECTION ( 'NONE',  ( 1.000000000000000000, 0.000000000000000000, 0.000000000000000000 ) ) ;
#179 = EDGE_LOOP ( 'NONE', ( #72, #214, #49, #228 ) ) ;
#180 = DIRECTION ( 'NONE',  ( 0.000000000000000000, 0.000000000000000000, 1.000000000000000000 ) ) ;
#181 = ADVANCED_FACE ( 'NONE', ( #211, #143 ), #243, .T. ) ;
#182 = CC_DESIGN_APPROVAL ( #102, ( #152 ) ) ;
#183 = ORIENTED_EDGE ( 'NONE', *, *, #138, .F. ) ;
#184 = CALENDAR_DATE ( 2023, 12, 2 ) ;
#185 = CARTESIAN_POINT ( 'NONE',  ( 0.000000000000000000, 0.000000000000000000, 5.000000000000000000 ) ) ;
#186 = CARTESIAN_POINT ( 'NONE',  ( 0.000000000000000000, 0.000000000000000000, 5.000000000000000000 ) ) ;
#187 = CC_DESIGN_SECURITY_CLASSIFICATION ( #59, ( #152 ) ) ;
#188 = FACE_OUTER_BOUND ( 'NONE', #166, .T. ) ;
#189 = DATE_TIME_ROLE ( 'classification_date' ) ;
#190 = ADVANCED_BREP_SHAPE_REPRESENTATION ( '3913', ( #204, #48 ), #31 ) ;
#191 = PERSON_AND_ORGANIZATION ( #234, #118 ) ;
#192 = APPLICATION_CONTEXT ( 'configuration controlled 3d designs of mechanical parts and assemblies' ) ;
#193 = CC_DESIGN_PERSON_AND_ORGANIZATION_ASSIGNMENT ( #191, #177, ( #152 ) ) ;
#194 = ORIENTED_EDGE ( 'NONE', *, *, #34, .F. ) ;
#195 = VERTEX_POINT ( 'NONE', #123 ) ;
#196 = CARTESIAN_POINT ( 'NONE',  ( 3.100000000000000089, 3.796405077356794918E-16, 5.000000000000000000 ) ) ;
#197 = LOCAL_TIME ( 12, 39, 17.00000000000000000, #8 ) ;
#198 = EDGE_CURVE ( 'NONE', #45, #169, #219, .T. ) ;
#199 = DATE_AND_TIME ( #153, #54 ) ;
#200 = APPROVAL_PERSON_ORGANIZATION ( #93, #19, #7 ) ;
#201 = EDGE_CURVE ( 'NONE', #195, #230, #26, .T. ) ;
#202 = DIRECTION ( 'NONE',  ( 1.000000000000000000, 0.000000000000000000, 0.000000000000000000 ) ) ;
#203 = AXIS2_PLACEMENT_3D ( 'NONE', #137, #117, #162 ) ;
#204 = MANIFOLD_SOLID_BREP ( 'Pøidat vysunutím3', #139 ) ;
#205 = CC_DESIGN_DATE_AND_TIME_ASSIGNMENT ( #173, #189, ( #59 ) ) ;
#206 = CARTESIAN_POINT ( 'NONE',  ( 0.000000000000000000, 0.000000000000000000, 100.0000000000000000 ) ) ;
#207 = FACE_OUTER_BOUND ( 'NONE', #239, .T. ) ;
#208 = DATE_AND_TIME ( #184, #2 ) ;
#209 = PERSON_AND_ORGANIZATION_ROLE ( 'design_owner' ) ;
#210 = ORIENTED_EDGE ( 'NONE', *, *, #64, .T. ) ;
#211 = FACE_BOUND ( 'NONE', #87, .T. ) ;
#212 = CIRCLE ( 'NONE', #237, 6.000000000000000888 ) ;
#213 = CIRCLE ( 'NONE', #165, 6.000000000000000888 ) ;
#214 = ORIENTED_EDGE ( 'NONE', *, *, #147, .F. ) ;
#215 = APPROVAL_ROLE ( '' ) ;
#216 = EDGE_LOOP ( 'NONE', ( #114, #253, #172, #194 ) ) ;
#217 = VECTOR ( 'NONE', #61, 1000.000000000000000 ) ;
#218 = DIRECTION ( 'NONE',  ( 1.000000000000000000, 0.000000000000000000, 0.000000000000000000 ) ) ;
#219 = CIRCLE ( 'NONE', #35, 3.100000000000000089 ) ;
#220 = APPROVAL_DATE_TIME ( #67, #19 ) ;
#221 = PERSON_AND_ORGANIZATION ( #234, #118 ) ;
#222 = APPROVAL_STATUS ( 'not_yet_approved' ) ;
#223 = CARTESIAN_POINT ( 'NONE',  ( 0.000000000000000000, 0.000000000000000000, 0.000000000000000000 ) ) ;
#224 = ADVANCED_FACE ( 'NONE', ( #188 ), #174, .F. ) ;
#225 = AXIS2_PLACEMENT_3D ( 'NONE', #129, #52, #178 ) ;
#226 = DIRECTION ( 'NONE',  ( -0.000000000000000000, -0.000000000000000000, -1.000000000000000000 ) ) ;
#227 = CARTESIAN_POINT ( 'NONE',  ( 6.000000000000000888, 7.347880794884120722E-16, 0.000000000000000000 ) ) ;
#228 = ORIENTED_EDGE ( 'NONE', *, *, #198, .T. ) ;
#229 = CYLINDRICAL_SURFACE ( 'NONE', #203, 6.000000000000000888 ) ;
#230 = VERTEX_POINT ( 'NONE', #227 ) ;
#231 = PRODUCT_RELATED_PRODUCT_CATEGORY ( 'detail', '', ( #125 ) ) ;
#232 = FACE_OUTER_BOUND ( 'NONE', #170, .T. ) ;
#233 = DIRECTION ( 'NONE',  ( -0.000000000000000000, -0.000000000000000000, -1.000000000000000000 ) ) ;
#234 = PERSON ( 'NEURÈENÝ', 'NEURÈENÝ', 'NEURÈENÝ', ('NEURÈENÝ'), ('NEURÈENÝ'), ('NEURÈENÝ') ) ;
#235 = ORIENTED_EDGE ( 'NONE', *, *, #167, .F. ) ;
#236 =( NAMED_UNIT ( * ) SI_UNIT ( $, .STERADIAN. ) SOLID_ANGLE_UNIT ( ) );
#237 = AXIS2_PLACEMENT_3D ( 'NONE', #56, #73, #134 ) ;
#238 = CARTESIAN_POINT ( 'NONE',  ( -3.100000000000000089, 0.000000000000000000, 100.0000000000000000 ) ) ;
#239 = EDGE_LOOP ( 'NONE', ( #99, #66, #141, #235 ) ) ;
#240 = UNCERTAINTY_MEASURE_WITH_UNIT (LENGTH_MEASURE( 1.000000000000000082E-05 ), #154, 'distance_accuracy_value', 'NONE');
#241 = EDGE_CURVE ( 'NONE', #77, #230, #213, .T. ) ;
#242 = APPLICATION_CONTEXT ( 'configuration controlled 3d designs of mechanical parts and assemblies' ) ;
#243 = PLANE ( 'NONE',  #144 ) ;
#244 = ORIENTED_EDGE ( 'NONE', *, *, #198, .F. ) ;
#245 = APPROVAL_STATUS ( 'not_yet_approved' ) ;
#246 = DIRECTION ( 'NONE',  ( 0.000000000000000000, 0.000000000000000000, 1.000000000000000000 ) ) ;
#247 = SECURITY_CLASSIFICATION_LEVEL ( 'unclassified' ) ;
#248 = DIRECTION ( 'NONE',  ( 1.000000000000000000, 0.000000000000000000, -0.000000000000000000 ) ) ;
#249 = PERSON_AND_ORGANIZATION ( #234, #118 ) ;
#250 = DIRECTION ( 'NONE',  ( 1.000000000000000000, 0.000000000000000000, 0.000000000000000000 ) ) ;
#251 = AXIS2_PLACEMENT_3D ( 'NONE', #206, #157, #250 ) ;
#252 = APPROVAL_STATUS ( 'not_yet_approved' ) ;
#253 = ORIENTED_EDGE ( 'NONE', *, *, #113, .T. ) ;
#254 = APPLICATION_PROTOCOL_DEFINITION ( 'international standard', 'config_control_design', 1994, #192 ) ;
#255 = AXIS2_PLACEMENT_3D ( 'NONE', #75, #233, #17 ) ;
ENDSEC;
END-ISO-10303-21;
