ISO-10303-21;
HEADER;
FILE_DESCRIPTION (( 'STEP AP203' ),
    '1' );
FILE_NAME ('0772.STEP',
    '2023-02-12T11:19:59',
    ( '' ),
    ( '' ),
    'SwSTEP 2.0',
    'SolidWorks 2019',
    '' );
FILE_SCHEMA (( 'CONFIG_CONTROL_DESIGN' ));
ENDSEC;

DATA;
#1 = FACE_OUTER_BOUND ( 'NONE', #235, .T. ) ;
#2 = PRODUCT_RELATED_PRODUCT_CATEGORY ( 'detail', '', ( #132 ) ) ;
#3 =( NAMED_UNIT ( * ) SI_UNIT ( $, .STERADIAN. ) SOLID_ANGLE_UNIT ( ) );
#4 = APPROVAL_PERSON_ORGANIZATION ( #138, #205, #64 ) ;
#5 = EDGE_CURVE ( 'NONE', #72, #47, #186, .T. ) ;
#6 = PERSON_AND_ORGANIZATION ( #162, #195 ) ;
#7 = CARTESIAN_POINT ( 'NONE',  ( 7.000000000000000000, 8.572527594031473190E-16, 0.000000000000000000 ) ) ;
#8 = ORIENTED_EDGE ( 'NONE', *, *, #246, .T. ) ;
#9 = AXIS2_PLACEMENT_3D ( 'NONE', #122, #201, #50 ) ;
#10 = FACE_OUTER_BOUND ( 'NONE', #213, .T. ) ;
#11 = AXIS2_PLACEMENT_3D ( 'NONE', #251, #177, #160 ) ;
#12 = COORDINATED_UNIVERSAL_TIME_OFFSET ( 1, 0, .AHEAD. ) ;
#13 = DIRECTION ( 'NONE',  ( 1.000000000000000000, 0.000000000000000000, 0.000000000000000000 ) ) ;
#14 = ADVANCED_FACE ( 'NONE', ( #69 ), #71, .T. ) ;
#15 = ORIENTED_EDGE ( 'NONE', *, *, #246, .F. ) ;
#16 = LOCAL_TIME ( 12, 19, 59.00000000000000000, #105 ) ;
#17 = VERTEX_POINT ( 'NONE', #51 ) ;
#18 = CLOSED_SHELL ( 'NONE', ( #82, #14, #76, #53, #252, #171, #173 ) ) ;
#19 = DIRECTION ( 'NONE',  ( 1.000000000000000000, 0.000000000000000000, -0.000000000000000000 ) ) ;
#20 = CARTESIAN_POINT ( 'NONE',  ( -4.000000000000000000, 0.000000000000000000, 5.000000000000000000 ) ) ;
#21 = ORIENTED_EDGE ( 'NONE', *, *, #103, .T. ) ;
#22 = DIRECTION ( 'NONE',  ( -0.000000000000000000, -0.000000000000000000, -1.000000000000000000 ) ) ;
#23 = ORIENTED_EDGE ( 'NONE', *, *, #242, .T. ) ;
#24 = APPROVAL_STATUS ( 'not_yet_approved' ) ;
#25 = DATE_TIME_ROLE ( 'classification_date' ) ;
#26 = DIRECTION ( 'NONE',  ( 1.000000000000000000, 0.000000000000000000, 0.000000000000000000 ) ) ;
#27 = ORIENTED_EDGE ( 'NONE', *, *, #188, .F. ) ;
#28 = SHAPE_DEFINITION_REPRESENTATION ( #215, #86 ) ;
#29 = APPROVAL_PERSON_ORGANIZATION ( #153, #31, #123 ) ;
#30 = LINE ( 'NONE', #99, #216 ) ;
#31 = APPROVAL ( #85, 'NEURÈENÝ' ) ;
#32 = DIRECTION ( 'NONE',  ( 0.000000000000000000, 0.000000000000000000, 1.000000000000000000 ) ) ;
#33 = DIRECTION ( 'NONE',  ( -0.000000000000000000, -0.000000000000000000, -1.000000000000000000 ) ) ;
#34 = CARTESIAN_POINT ( 'NONE',  ( 4.000000000000000000, 4.898587196589412829E-16, 200.0000000000000000 ) ) ;
#35 = AXIS2_PLACEMENT_3D ( 'NONE', #43, #189, #19 ) ;
#36 = EDGE_CURVE ( 'NONE', #17, #203, #30, .T. ) ;
#37 = MECHANICAL_CONTEXT ( 'NONE', #150, 'mechanical' ) ;
#38 = ORIENTED_EDGE ( 'NONE', *, *, #188, .T. ) ;
#39 = PERSON_AND_ORGANIZATION_ROLE ( 'creator' ) ;
#40 = CC_DESIGN_PERSON_AND_ORGANIZATION_ASSIGNMENT ( #6, #179, ( #217 ) ) ;
#41 = AXIS2_PLACEMENT_3D ( 'NONE', #131, #159, #74 ) ;
#42 = ORIENTED_EDGE ( 'NONE', *, *, #36, .F. ) ;
#43 = CARTESIAN_POINT ( 'NONE',  ( 0.000000000000000000, 0.000000000000000000, 200.0000000000000000 ) ) ;
#44 = PRODUCT_DEFINITION ( 'NEZNÁMÝ', '', #217, #151 ) ;
#45 = CC_DESIGN_SECURITY_CLASSIFICATION ( #146, ( #217 ) ) ;
#46 = DIRECTION ( 'NONE',  ( 1.000000000000000000, 0.000000000000000000, 0.000000000000000000 ) ) ;
#47 = VERTEX_POINT ( 'NONE', #7 ) ;
#48 = COORDINATED_UNIVERSAL_TIME_OFFSET ( 1, 0, .AHEAD. ) ;
#49 = CARTESIAN_POINT ( 'NONE',  ( 0.000000000000000000, 0.000000000000000000, 5.000000000000000000 ) ) ;
#50 = DIRECTION ( 'NONE',  ( -1.000000000000000000, 0.000000000000000000, 0.000000000000000000 ) ) ;
#51 = CARTESIAN_POINT ( 'NONE',  ( -4.000000000000000000, 0.000000000000000000, 200.0000000000000000 ) ) ;
#52 = ORIENTED_EDGE ( 'NONE', *, *, #161, .F. ) ;
#53 = ADVANCED_FACE ( 'NONE', ( #234, #79 ), #144, .T. ) ;
#54 = DIRECTION ( 'NONE',  ( -0.000000000000000000, -0.000000000000000000, -1.000000000000000000 ) ) ;
#55 = VERTEX_POINT ( 'NONE', #34 ) ;
#56 = CIRCLE ( 'NONE', #111, 4.000000000000000000 ) ;
#57 = CALENDAR_DATE ( 2023, 12, 2 ) ;
#58 = DIRECTION ( 'NONE',  ( 1.000000000000000000, 0.000000000000000000, 0.000000000000000000 ) ) ;
#59 = EDGE_CURVE ( 'NONE', #255, #120, #61, .T. ) ;
#60 = CALENDAR_DATE ( 2023, 12, 2 ) ;
#61 = CIRCLE ( 'NONE', #249, 7.000000000000000000 ) ;
#62 = APPROVAL ( #24, 'NEURÈENÝ' ) ;
#63 = CARTESIAN_POINT ( 'NONE',  ( 0.000000000000000000, 0.000000000000000000, 0.000000000000000000 ) ) ;
#64 = APPROVAL_ROLE ( '' ) ;
#65 = EDGE_CURVE ( 'NONE', #120, #255, #243, .T. ) ;
#66 = CARTESIAN_POINT ( 'NONE',  ( 0.000000000000000000, 0.000000000000000000, 5.000000000000000000 ) ) ;
#67 = ORIENTED_EDGE ( 'NONE', *, *, #65, .T. ) ;
#68 = DIRECTION ( 'NONE',  ( -0.000000000000000000, -0.000000000000000000, -1.000000000000000000 ) ) ;
#69 = FACE_OUTER_BOUND ( 'NONE', #118, .T. ) ;
#70 = PERSON_AND_ORGANIZATION_ROLE ( 'classification_officer' ) ;
#71 = CYLINDRICAL_SURFACE ( 'NONE', #73, 7.000000000000000000 ) ;
#72 = VERTEX_POINT ( 'NONE', #241 ) ;
#73 = AXIS2_PLACEMENT_3D ( 'NONE', #163, #81, #147 ) ;
#74 = DIRECTION ( 'NONE',  ( 1.000000000000000000, 0.000000000000000000, 0.000000000000000000 ) ) ;
#75 = PERSON_AND_ORGANIZATION ( #162, #195 ) ;
#76 = ADVANCED_FACE ( 'NONE', ( #218 ), #167, .T. ) ;
#77 =( GEOMETRIC_REPRESENTATION_CONTEXT ( 3 ) GLOBAL_UNCERTAINTY_ASSIGNED_CONTEXT ( ( #100 ) ) GLOBAL_UNIT_ASSIGNED_CONTEXT ( ( #95, #233, #3 ) ) REPRESENTATION_CONTEXT ( 'NONE', 'WORKASPACE' ) );
#78 = CC_DESIGN_APPROVAL ( #205, ( #146 ) ) ;
#79 = FACE_OUTER_BOUND ( 'NONE', #128, .T. ) ;
#80 = APPLICATION_PROTOCOL_DEFINITION ( 'international standard', 'config_control_design', 1994, #150 ) ;
#81 = DIRECTION ( 'NONE',  ( -0.000000000000000000, -0.000000000000000000, -1.000000000000000000 ) ) ;
#82 = ADVANCED_FACE ( 'NONE', ( #10 ), #116, .T. ) ;
#83 = CARTESIAN_POINT ( 'NONE',  ( 4.000000000000000000, 4.898587196589412829E-16, 200.0000000000000000 ) ) ;
#84 = CARTESIAN_POINT ( 'NONE',  ( 4.000000000000000000, 4.898587196589412829E-16, 5.000000000000000000 ) ) ;
#85 = APPROVAL_STATUS ( 'not_yet_approved' ) ;
#86 = ADVANCED_BREP_SHAPE_REPRESENTATION ( '0772', ( #134, #93 ), #77 ) ;
#87 = VECTOR ( 'NONE', #174, 1000.000000000000000 ) ;
#88 = DIRECTION ( 'NONE',  ( 1.000000000000000000, 0.000000000000000000, 0.000000000000000000 ) ) ;
#89 = DIRECTION ( 'NONE',  ( 0.000000000000000000, 0.000000000000000000, 1.000000000000000000 ) ) ;
#90 = VERTEX_POINT ( 'NONE', #84 ) ;
#91 = CARTESIAN_POINT ( 'NONE',  ( 7.000000000000000000, 8.572527594031473190E-16, 5.000000000000000000 ) ) ;
#92 = ORIENTED_EDGE ( 'NONE', *, *, #5, .F. ) ;
#93 = AXIS2_PLACEMENT_3D ( 'NONE', #196, #96, #88 ) ;
#94 = CYLINDRICAL_SURFACE ( 'NONE', #190, 4.000000000000000000 ) ;
#95 =( LENGTH_UNIT ( ) NAMED_UNIT ( * ) SI_UNIT ( .MILLI., .METRE. ) );
#96 = DIRECTION ( 'NONE',  ( 0.000000000000000000, 0.000000000000000000, 1.000000000000000000 ) ) ;
#97 = ORIENTED_EDGE ( 'NONE', *, *, #200, .F. ) ;
#98 = DIRECTION ( 'NONE',  ( -1.000000000000000000, 0.000000000000000000, 0.000000000000000000 ) ) ;
#99 = CARTESIAN_POINT ( 'NONE',  ( -4.000000000000000000, 0.000000000000000000, 200.0000000000000000 ) ) ;
#100 = UNCERTAINTY_MEASURE_WITH_UNIT (LENGTH_MEASURE( 1.000000000000000082E-05 ), #95, 'distance_accuracy_value', 'NONE');
#101 = ORIENTED_EDGE ( 'NONE', *, *, #36, .T. ) ;
#102 = PERSON_AND_ORGANIZATION_ROLE ( 'design_owner' ) ;
#103 = EDGE_CURVE ( 'NONE', #255, #72, #248, .T. ) ;
#104 = CARTESIAN_POINT ( 'NONE',  ( 0.000000000000000000, 0.000000000000000000, 0.000000000000000000 ) ) ;
#105 = COORDINATED_UNIVERSAL_TIME_OFFSET ( 1, 0, .AHEAD. ) ;
#106 = DIRECTION ( 'NONE',  ( 0.000000000000000000, 0.000000000000000000, 1.000000000000000000 ) ) ;
#107 = CARTESIAN_POINT ( 'NONE',  ( 0.000000000000000000, 0.000000000000000000, 200.0000000000000000 ) ) ;
#108 = CC_DESIGN_APPROVAL ( #31, ( #44 ) ) ;
#109 = ORIENTED_EDGE ( 'NONE', *, *, #223, .F. ) ;
#110 = CARTESIAN_POINT ( 'NONE',  ( 0.000000000000000000, 0.000000000000000000, 5.000000000000000000 ) ) ;
#111 = AXIS2_PLACEMENT_3D ( 'NONE', #110, #176, #46 ) ;
#112 = PERSON_AND_ORGANIZATION ( #162, #195 ) ;
#113 = CALENDAR_DATE ( 2023, 12, 2 ) ;
#114 = FACE_OUTER_BOUND ( 'NONE', #219, .T. ) ;
#115 = CIRCLE ( 'NONE', #253, 4.000000000000000000 ) ;
#116 = CYLINDRICAL_SURFACE ( 'NONE', #155, 4.000000000000000000 ) ;
#117 = PERSON_AND_ORGANIZATION_ROLE ( 'creator' ) ;
#118 = EDGE_LOOP ( 'NONE', ( #245, #23, #152, #237 ) ) ;
#119 = CC_DESIGN_PERSON_AND_ORGANIZATION_ASSIGNMENT ( #75, #117, ( #217 ) ) ;
#120 = VERTEX_POINT ( 'NONE', #232 ) ;
#121 = DIRECTION ( 'NONE',  ( 0.000000000000000000, 0.000000000000000000, 1.000000000000000000 ) ) ;
#122 = CARTESIAN_POINT ( 'NONE',  ( 0.000000000000000000, 0.000000000000000000, 5.000000000000000000 ) ) ;
#123 = APPROVAL_ROLE ( '' ) ;
#124 = VECTOR ( 'NONE', #68, 1000.000000000000000 ) ;
#125 = DATE_AND_TIME ( #57, #170 ) ;
#126 = ORIENTED_EDGE ( 'NONE', *, *, #200, .T. ) ;
#127 = PERSON_AND_ORGANIZATION ( #162, #195 ) ;
#128 = EDGE_LOOP ( 'NONE', ( #244, #67 ) ) ;
#129 = FACE_OUTER_BOUND ( 'NONE', #166, .T. ) ;
#130 = APPROVAL_DATE_TIME ( #158, #62 ) ;
#131 = CARTESIAN_POINT ( 'NONE',  ( 0.000000000000000000, 0.000000000000000000, 200.0000000000000000 ) ) ;
#132 = PRODUCT ( '0772', '0772', '', ( #37 ) ) ;
#133 = EDGE_LOOP ( 'NONE', ( #154, #221, #21, #140 ) ) ;
#134 = MANIFOLD_SOLID_BREP ( 'Pøidat vysunutím3', #18 ) ;
#135 = AXIS2_PLACEMENT_3D ( 'NONE', #66, #32, #13 ) ;
#136 = LOCAL_TIME ( 12, 19, 59.00000000000000000, #48 ) ;
#137 = PLANE ( 'NONE',  #175 ) ;
#138 = PERSON_AND_ORGANIZATION ( #162, #195 ) ;
#139 = COORDINATED_UNIVERSAL_TIME_OFFSET ( 1, 0, .AHEAD. ) ;
#140 = ORIENTED_EDGE ( 'NONE', *, *, #5, .T. ) ;
#141 = ORIENTED_EDGE ( 'NONE', *, *, #161, .T. ) ;
#142 = DATE_AND_TIME ( #164, #149 ) ;
#143 = CIRCLE ( 'NONE', #41, 4.000000000000000000 ) ;
#144 = PLANE ( 'NONE',  #226 ) ;
#145 = CIRCLE ( 'NONE', #207, 4.000000000000000000 ) ;
#146 = SECURITY_CLASSIFICATION ( '', '', #198 ) ;
#147 = DIRECTION ( 'NONE',  ( -1.000000000000000000, 0.000000000000000000, 0.000000000000000000 ) ) ;
#148 = DIRECTION ( 'NONE',  ( 1.000000000000000000, 0.000000000000000000, -0.000000000000000000 ) ) ;
#149 = LOCAL_TIME ( 12, 19, 59.00000000000000000, #238 ) ;
#150 = APPLICATION_CONTEXT ( 'configuration controlled 3d designs of mechanical parts and assemblies' ) ;
#151 = DESIGN_CONTEXT ( 'detailed design', #208, 'design' ) ;
#152 = ORIENTED_EDGE ( 'NONE', *, *, #223, .T. ) ;
#153 = PERSON_AND_ORGANIZATION ( #162, #195 ) ;
#154 = ORIENTED_EDGE ( 'NONE', *, *, #242, .F. ) ;
#155 = AXIS2_PLACEMENT_3D ( 'NONE', #194, #33, #98 ) ;
#156 = PERSON_AND_ORGANIZATION ( #162, #195 ) ;
#157 = VECTOR ( 'NONE', #178, 1000.000000000000000 ) ;
#158 = DATE_AND_TIME ( #60, #136 ) ;
#159 = DIRECTION ( 'NONE',  ( 0.000000000000000000, 0.000000000000000000, 1.000000000000000000 ) ) ;
#160 = DIRECTION ( 'NONE',  ( 1.000000000000000000, 0.000000000000000000, 0.000000000000000000 ) ) ;
#161 = EDGE_CURVE ( 'NONE', #55, #17, #115, .T. ) ;
#162 = PERSON ( 'NEURÈENÝ', 'NEURÈENÝ', 'NEURÈENÝ', ('NEURÈENÝ'), ('NEURÈENÝ'), ('NEURÈENÝ') ) ;
#163 = CARTESIAN_POINT ( 'NONE',  ( 0.000000000000000000, 0.000000000000000000, 5.000000000000000000 ) ) ;
#164 = CALENDAR_DATE ( 2023, 12, 2 ) ;
#165 = EDGE_CURVE ( 'NONE', #17, #55, #143, .T. ) ;
#166 = EDGE_LOOP ( 'NONE', ( #172, #141 ) ) ;
#167 = CYLINDRICAL_SURFACE ( 'NONE', #9, 7.000000000000000000 ) ;
#168 = ORIENTED_EDGE ( 'NONE', *, *, #165, .F. ) ;
#169 = CIRCLE ( 'NONE', #11, 7.000000000000000000 ) ;
#170 = LOCAL_TIME ( 12, 19, 59.00000000000000000, #12 ) ;
#171 = ADVANCED_FACE ( 'NONE', ( #1 ), #94, .T. ) ;
#172 = ORIENTED_EDGE ( 'NONE', *, *, #165, .T. ) ;
#173 = ADVANCED_FACE ( 'NONE', ( #129 ), #212, .T. ) ;
#174 = DIRECTION ( 'NONE',  ( -0.000000000000000000, -0.000000000000000000, -1.000000000000000000 ) ) ;
#175 = AXIS2_PLACEMENT_3D ( 'NONE', #63, #121, #148 ) ;
#176 = DIRECTION ( 'NONE',  ( 0.000000000000000000, 0.000000000000000000, 1.000000000000000000 ) ) ;
#177 = DIRECTION ( 'NONE',  ( 0.000000000000000000, 0.000000000000000000, 1.000000000000000000 ) ) ;
#178 = DIRECTION ( 'NONE',  ( -0.000000000000000000, -0.000000000000000000, -1.000000000000000000 ) ) ;
#179 = PERSON_AND_ORGANIZATION_ROLE ( 'design_supplier' ) ;
#180 = CARTESIAN_POINT ( 'NONE',  ( -7.000000000000000000, 0.000000000000000000, 5.000000000000000000 ) ) ;
#181 = APPROVAL_PERSON_ORGANIZATION ( #156, #62, #229 ) ;
#182 = DATE_AND_TIME ( #113, #191 ) ;
#183 = DIRECTION ( 'NONE',  ( 0.000000000000000000, 0.000000000000000000, 1.000000000000000000 ) ) ;
#184 = CARTESIAN_POINT ( 'NONE',  ( 0.000000000000000000, 0.000000000000000000, 5.000000000000000000 ) ) ;
#185 = EDGE_LOOP ( 'NONE', ( #97, #27 ) ) ;
#186 = CIRCLE ( 'NONE', #211, 7.000000000000000000 ) ;
#187 = CC_DESIGN_APPROVAL ( #62, ( #217 ) ) ;
#188 = EDGE_CURVE ( 'NONE', #90, #203, #145, .T. ) ;
#189 = DIRECTION ( 'NONE',  ( 0.000000000000000000, 0.000000000000000000, 1.000000000000000000 ) ) ;
#190 = AXIS2_PLACEMENT_3D ( 'NONE', #107, #22, #230 ) ;
#191 = LOCAL_TIME ( 12, 19, 59.00000000000000000, #139 ) ;
#192 = LINE ( 'NONE', #91, #157 ) ;
#193 = DIRECTION ( 'NONE',  ( 1.000000000000000000, 0.000000000000000000, 0.000000000000000000 ) ) ;
#194 = CARTESIAN_POINT ( 'NONE',  ( 0.000000000000000000, 0.000000000000000000, 200.0000000000000000 ) ) ;
#195 = ORGANIZATION ( 'NEURÈENÝ', 'NEURÈENÝ', '' ) ;
#196 = CARTESIAN_POINT ( 'NONE',  ( 0.000000000000000000, 0.000000000000000000, 0.000000000000000000 ) ) ;
#197 = CARTESIAN_POINT ( 'NONE',  ( 0.000000000000000000, 0.000000000000000000, 5.000000000000000000 ) ) ;
#198 = SECURITY_CLASSIFICATION_LEVEL ( 'unclassified' ) ;
#199 = APPROVAL_STATUS ( 'not_yet_approved' ) ;
#200 = EDGE_CURVE ( 'NONE', #203, #90, #56, .T. ) ;
#201 = DIRECTION ( 'NONE',  ( -0.000000000000000000, -0.000000000000000000, -1.000000000000000000 ) ) ;
#202 = DIRECTION ( 'NONE',  ( 1.000000000000000000, 0.000000000000000000, -0.000000000000000000 ) ) ;
#203 = VERTEX_POINT ( 'NONE', #20 ) ;
#204 = PERSON_AND_ORGANIZATION ( #162, #195 ) ;
#205 = APPROVAL ( #199, 'NEURÈENÝ' ) ;
#206 = CALENDAR_DATE ( 2023, 12, 2 ) ;
#207 = AXIS2_PLACEMENT_3D ( 'NONE', #49, #89, #231 ) ;
#208 = APPLICATION_CONTEXT ( 'configuration controlled 3d designs of mechanical parts and assemblies' ) ;
#209 = CC_DESIGN_DATE_AND_TIME_ASSIGNMENT ( #240, #210, ( #44 ) ) ;
#210 = DATE_TIME_ROLE ( 'creation_date' ) ;
#211 = AXIS2_PLACEMENT_3D ( 'NONE', #104, #225, #58 ) ;
#212 = PLANE ( 'NONE',  #35 ) ;
#213 = EDGE_LOOP ( 'NONE', ( #52, #8, #38, #42 ) ) ;
#214 = CC_DESIGN_PERSON_AND_ORGANIZATION_ASSIGNMENT ( #112, #70, ( #146 ) ) ;
#215 = PRODUCT_DEFINITION_SHAPE ( 'NONE', 'NONE',  #44 ) ;
#216 = VECTOR ( 'NONE', #54, 1000.000000000000000 ) ;
#217 = PRODUCT_DEFINITION_FORMATION_WITH_SPECIFIED_SOURCE ( 'LIBOVOLNÝ', '', #132, .NOT_KNOWN. ) ;
#218 = FACE_OUTER_BOUND ( 'NONE', #133, .T. ) ;
#219 = EDGE_LOOP ( 'NONE', ( #92, #109 ) ) ;
#220 = APPROVAL_DATE_TIME ( #142, #205 ) ;
#221 = ORIENTED_EDGE ( 'NONE', *, *, #59, .F. ) ;
#222 = CC_DESIGN_PERSON_AND_ORGANIZATION_ASSIGNMENT ( #204, #39, ( #44 ) ) ;
#223 = EDGE_CURVE ( 'NONE', #47, #72, #169, .T. ) ;
#224 = APPROVAL_DATE_TIME ( #125, #31 ) ;
#225 = DIRECTION ( 'NONE',  ( 0.000000000000000000, 0.000000000000000000, 1.000000000000000000 ) ) ;
#226 = AXIS2_PLACEMENT_3D ( 'NONE', #197, #183, #202 ) ;
#227 = CC_DESIGN_PERSON_AND_ORGANIZATION_ASSIGNMENT ( #127, #102, ( #132 ) ) ;
#228 = CARTESIAN_POINT ( 'NONE',  ( -7.000000000000000000, 0.000000000000000000, 5.000000000000000000 ) ) ;
#229 = APPROVAL_ROLE ( '' ) ;
#230 = DIRECTION ( 'NONE',  ( -1.000000000000000000, 0.000000000000000000, 0.000000000000000000 ) ) ;
#231 = DIRECTION ( 'NONE',  ( 1.000000000000000000, 0.000000000000000000, 0.000000000000000000 ) ) ;
#232 = CARTESIAN_POINT ( 'NONE',  ( 7.000000000000000000, 8.572527594031473190E-16, 5.000000000000000000 ) ) ;
#233 =( NAMED_UNIT ( * ) PLANE_ANGLE_UNIT ( ) SI_UNIT ( $, .RADIAN. ) );
#234 = FACE_BOUND ( 'NONE', #185, .T. ) ;
#235 = EDGE_LOOP ( 'NONE', ( #15, #168, #101, #126 ) ) ;
#236 = CC_DESIGN_DATE_AND_TIME_ASSIGNMENT ( #182, #25, ( #146 ) ) ;
#237 = ORIENTED_EDGE ( 'NONE', *, *, #103, .F. ) ;
#238 = COORDINATED_UNIVERSAL_TIME_OFFSET ( 1, 0, .AHEAD. ) ;
#239 = DIRECTION ( 'NONE',  ( 0.000000000000000000, 0.000000000000000000, 1.000000000000000000 ) ) ;
#240 = DATE_AND_TIME ( #206, #16 ) ;
#241 = CARTESIAN_POINT ( 'NONE',  ( -7.000000000000000000, 0.000000000000000000, 0.000000000000000000 ) ) ;
#242 = EDGE_CURVE ( 'NONE', #120, #47, #192, .T. ) ;
#243 = CIRCLE ( 'NONE', #135, 7.000000000000000000 ) ;
#244 = ORIENTED_EDGE ( 'NONE', *, *, #59, .T. ) ;
#245 = ORIENTED_EDGE ( 'NONE', *, *, #65, .F. ) ;
#246 = EDGE_CURVE ( 'NONE', #55, #90, #254, .T. ) ;
#247 = APPLICATION_PROTOCOL_DEFINITION ( 'international standard', 'config_control_design', 1994, #208 ) ;
#248 = LINE ( 'NONE', #228, #87 ) ;
#249 = AXIS2_PLACEMENT_3D ( 'NONE', #184, #239, #26 ) ;
#250 = CARTESIAN_POINT ( 'NONE',  ( 0.000000000000000000, 0.000000000000000000, 200.0000000000000000 ) ) ;
#251 = CARTESIAN_POINT ( 'NONE',  ( 0.000000000000000000, 0.000000000000000000, 0.000000000000000000 ) ) ;
#252 = ADVANCED_FACE ( 'NONE', ( #114 ), #137, .F. ) ;
#253 = AXIS2_PLACEMENT_3D ( 'NONE', #250, #106, #193 ) ;
#254 = LINE ( 'NONE', #83, #124 ) ;
#255 = VERTEX_POINT ( 'NONE', #180 ) ;
ENDSEC;
END-ISO-10303-21;
