ISO-10303-21;
HEADER;
FILE_DESCRIPTION (( 'STEP AP203' ),
    '1' );
FILE_NAME ('0bf4.STEP',
    '2023-02-12T12:02:59',
    ( '' ),
    ( '' ),
    'SwSTEP 2.0',
    'SolidWorks 2019',
    '' );
FILE_SCHEMA (( 'CONFIG_CONTROL_DESIGN' ));
ENDSEC;

DATA;
#1 = DIRECTION ( 'NONE',  ( 1.000000000000000000, 0.000000000000000000, 0.000000000000000000 ) ) ;
#2 = PERSON_AND_ORGANIZATION_ROLE ( 'design_owner' ) ;
#3 = FACE_OUTER_BOUND ( 'NONE', #90, .T. ) ;
#4 = EDGE_CURVE ( 'NONE', #96, #242, #149, .T. ) ;
#5 = PERSON_AND_ORGANIZATION ( #134, #32 ) ;
#6 = AXIS2_PLACEMENT_3D ( 'NONE', #163, #142, #226 ) ;
#7 =( NAMED_UNIT ( * ) PLANE_ANGLE_UNIT ( ) SI_UNIT ( $, .RADIAN. ) );
#8 = DIRECTION ( 'NONE',  ( 0.000000000000000000, 0.000000000000000000, 1.000000000000000000 ) ) ;
#9 = DIRECTION ( 'NONE',  ( -0.000000000000000000, -0.000000000000000000, -1.000000000000000000 ) ) ;
#10 = PRODUCT_DEFINITION_FORMATION_WITH_SPECIFIED_SOURCE ( 'LIBOVOLNÝ', '', #236, .NOT_KNOWN. ) ;
#11 = CARTESIAN_POINT ( 'NONE',  ( 4.000000000000000000, 4.898587196589412829E-16, 3.000000000000000000 ) ) ;
#12 = DESIGN_CONTEXT ( 'detailed design', #132, 'design' ) ;
#13 = DIRECTION ( 'NONE',  ( -0.000000000000000000, -0.000000000000000000, -1.000000000000000000 ) ) ;
#14 = AXIS2_PLACEMENT_3D ( 'NONE', #35, #129, #253 ) ;
#15 = CARTESIAN_POINT ( 'NONE',  ( 4.000000000000000000, 4.898587196589412829E-16, 0.000000000000000000 ) ) ;
#16 = CYLINDRICAL_SURFACE ( 'NONE', #228, 4.000000000000000000 ) ;
#17 = CC_DESIGN_PERSON_AND_ORGANIZATION_ASSIGNMENT ( #84, #19, ( #227 ) ) ;
#18 = SECURITY_CLASSIFICATION ( '', '', #148 ) ;
#19 = PERSON_AND_ORGANIZATION_ROLE ( 'creator' ) ;
#20 =( NAMED_UNIT ( * ) SI_UNIT ( $, .STERADIAN. ) SOLID_ANGLE_UNIT ( ) );
#21 = DIRECTION ( 'NONE',  ( 1.000000000000000000, 0.000000000000000000, 0.000000000000000000 ) ) ;
#22 = ORIENTED_EDGE ( 'NONE', *, *, #117, .T. ) ;
#23 = APPROVAL_PERSON_ORGANIZATION ( #187, #65, #224 ) ;
#24 = DIRECTION ( 'NONE',  ( 0.000000000000000000, 0.000000000000000000, 1.000000000000000000 ) ) ;
#25 = CC_DESIGN_PERSON_AND_ORGANIZATION_ASSIGNMENT ( #205, #106, ( #10 ) ) ;
#26 = LOCAL_TIME ( 13, 2, 59.00000000000000000, #211 ) ;
#27 = VERTEX_POINT ( 'NONE', #11 ) ;
#28 = CARTESIAN_POINT ( 'NONE',  ( 2.000000000000000000, 2.449293598294705921E-16, 3.000000000000000000 ) ) ;
#29 = EDGE_LOOP ( 'NONE', ( #112, #174 ) ) ;
#30 = EDGE_LOOP ( 'NONE', ( #235, #158 ) ) ;
#31 = CARTESIAN_POINT ( 'NONE',  ( 2.000000000000000000, 2.449293598294705921E-16, 125.0000000000000000 ) ) ;
#32 = ORGANIZATION ( 'NEURÈENÝ', 'NEURÈENÝ', '' ) ;
#33 = APPLICATION_CONTEXT ( 'configuration controlled 3d designs of mechanical parts and assemblies' ) ;
#34 = COORDINATED_UNIVERSAL_TIME_OFFSET ( 1, 0, .AHEAD. ) ;
#35 = CARTESIAN_POINT ( 'NONE',  ( 0.000000000000000000, 0.000000000000000000, 3.000000000000000000 ) ) ;
#36 = CALENDAR_DATE ( 2023, 12, 2 ) ;
#37 = CARTESIAN_POINT ( 'NONE',  ( 4.000000000000000000, 4.898587196589412829E-16, 3.000000000000000000 ) ) ;
#38 = LOCAL_TIME ( 13, 2, 59.00000000000000000, #56 ) ;
#39 = PERSON_AND_ORGANIZATION ( #134, #32 ) ;
#40 = CARTESIAN_POINT ( 'NONE',  ( 2.000000000000000000, 2.449293598294705921E-16, 125.0000000000000000 ) ) ;
#41 = FACE_OUTER_BOUND ( 'NONE', #197, .T. ) ;
#42 = DIRECTION ( 'NONE',  ( 0.000000000000000000, 0.000000000000000000, 1.000000000000000000 ) ) ;
#43 = EDGE_CURVE ( 'NONE', #242, #96, #124, .T. ) ;
#44 = FACE_BOUND ( 'NONE', #29, .T. ) ;
#45 = CALENDAR_DATE ( 2023, 12, 2 ) ;
#46 = PRODUCT_DEFINITION_SHAPE ( 'NONE', 'NONE',  #227 ) ;
#47 = APPROVAL_PERSON_ORGANIZATION ( #5, #102, #97 ) ;
#48 = EDGE_CURVE ( 'NONE', #60, #214, #171, .T. ) ;
#49 = ORIENTED_EDGE ( 'NONE', *, *, #190, .T. ) ;
#50 = ORIENTED_EDGE ( 'NONE', *, *, #117, .F. ) ;
#51 = CARTESIAN_POINT ( 'NONE',  ( -4.000000000000000000, 0.000000000000000000, 3.000000000000000000 ) ) ;
#52 = DIRECTION ( 'NONE',  ( -1.000000000000000000, 0.000000000000000000, 0.000000000000000000 ) ) ;
#53 = CARTESIAN_POINT ( 'NONE',  ( 0.000000000000000000, 0.000000000000000000, 0.000000000000000000 ) ) ;
#54 = EDGE_CURVE ( 'NONE', #244, #212, #184, .T. ) ;
#55 = CARTESIAN_POINT ( 'NONE',  ( 0.000000000000000000, 0.000000000000000000, 3.000000000000000000 ) ) ;
#56 = COORDINATED_UNIVERSAL_TIME_OFFSET ( 1, 0, .AHEAD. ) ;
#57 = CARTESIAN_POINT ( 'NONE',  ( 0.000000000000000000, 0.000000000000000000, 3.000000000000000000 ) ) ;
#58 = DIRECTION ( 'NONE',  ( -1.000000000000000000, 0.000000000000000000, 0.000000000000000000 ) ) ;
#59 = EDGE_CURVE ( 'NONE', #212, #244, #69, .T. ) ;
#60 = VERTEX_POINT ( 'NONE', #51 ) ;
#61 = COORDINATED_UNIVERSAL_TIME_OFFSET ( 1, 0, .AHEAD. ) ;
#62 = APPROVAL_PERSON_ORGANIZATION ( #147, #146, #143 ) ;
#63 = ADVANCED_BREP_SHAPE_REPRESENTATION ( '0bf4', ( #241, #136 ), #140 ) ;
#64 = DIRECTION ( 'NONE',  ( 1.000000000000000000, 0.000000000000000000, 0.000000000000000000 ) ) ;
#65 = APPROVAL ( #246, 'NEURÈENÝ' ) ;
#66 = EDGE_CURVE ( 'NONE', #214, #165, #161, .T. ) ;
#67 = CARTESIAN_POINT ( 'NONE',  ( -4.000000000000000000, 0.000000000000000000, 0.000000000000000000 ) ) ;
#68 = DIRECTION ( 'NONE',  ( 0.000000000000000000, 0.000000000000000000, 1.000000000000000000 ) ) ;
#69 = CIRCLE ( 'NONE', #218, 2.000000000000000000 ) ;
#70 = APPROVAL_DATE_TIME ( #234, #146 ) ;
#71 = CLOSED_SHELL ( 'NONE', ( #94, #220, #239, #233, #221, #230, #126 ) ) ;
#72 = AXIS2_PLACEMENT_3D ( 'NONE', #251, #24, #194 ) ;
#73 = VECTOR ( 'NONE', #83, 1000.000000000000000 ) ;
#74 = DATE_TIME_ROLE ( 'creation_date' ) ;
#75 = LINE ( 'NONE', #40, #203 ) ;
#76 = DATE_AND_TIME ( #45, #26 ) ;
#77 = UNCERTAINTY_MEASURE_WITH_UNIT (LENGTH_MEASURE( 1.000000000000000082E-05 ), #164, 'distance_accuracy_value', 'NONE');
#78 = AXIS2_PLACEMENT_3D ( 'NONE', #144, #183, #127 ) ;
#79 = ORIENTED_EDGE ( 'NONE', *, *, #66, .T. ) ;
#80 = ORIENTED_EDGE ( 'NONE', *, *, #48, .F. ) ;
#81 = CARTESIAN_POINT ( 'NONE',  ( 0.000000000000000000, 0.000000000000000000, 125.0000000000000000 ) ) ;
#82 = CARTESIAN_POINT ( 'NONE',  ( 0.000000000000000000, 0.000000000000000000, 125.0000000000000000 ) ) ;
#83 = DIRECTION ( 'NONE',  ( -0.000000000000000000, -0.000000000000000000, -1.000000000000000000 ) ) ;
#84 = PERSON_AND_ORGANIZATION ( #134, #32 ) ;
#85 = DATE_AND_TIME ( #36, #145 ) ;
#86 = DIRECTION ( 'NONE',  ( 0.000000000000000000, 0.000000000000000000, 1.000000000000000000 ) ) ;
#87 = DIRECTION ( 'NONE',  ( -0.000000000000000000, -0.000000000000000000, -1.000000000000000000 ) ) ;
#88 = VECTOR ( 'NONE', #202, 1000.000000000000000 ) ;
#89 = CALENDAR_DATE ( 2023, 12, 2 ) ;
#90 = EDGE_LOOP ( 'NONE', ( #216, #121, #22, #222 ) ) ;
#91 = DIRECTION ( 'NONE',  ( 0.000000000000000000, 0.000000000000000000, 1.000000000000000000 ) ) ;
#92 = EDGE_CURVE ( 'NONE', #165, #214, #95, .T. ) ;
#93 = DATE_AND_TIME ( #89, #128 ) ;
#94 = ADVANCED_FACE ( 'NONE', ( #201 ), #186, .T. ) ;
#95 = CIRCLE ( 'NONE', #173, 4.000000000000000000 ) ;
#96 = VERTEX_POINT ( 'NONE', #229 ) ;
#97 = APPROVAL_ROLE ( '' ) ;
#98 = ORIENTED_EDGE ( 'NONE', *, *, #114, .F. ) ;
#99 = ORIENTED_EDGE ( 'NONE', *, *, #190, .F. ) ;
#100 = AXIS2_PLACEMENT_3D ( 'NONE', #53, #247, #217 ) ;
#101 = EDGE_LOOP ( 'NONE', ( #199, #154, #160, #50 ) ) ;
#102 = APPROVAL ( #159, 'NEURÈENÝ' ) ;
#103 = CIRCLE ( 'NONE', #14, 4.000000000000000000 ) ;
#104 = FACE_OUTER_BOUND ( 'NONE', #153, .T. ) ;
#105 = EDGE_CURVE ( 'NONE', #60, #27, #103, .T. ) ;
#106 = PERSON_AND_ORGANIZATION_ROLE ( 'creator' ) ;
#107 = DIRECTION ( 'NONE',  ( 1.000000000000000000, 0.000000000000000000, 0.000000000000000000 ) ) ;
#108 = AXIS2_PLACEMENT_3D ( 'NONE', #131, #208, #111 ) ;
#109 = CC_DESIGN_DATE_AND_TIME_ASSIGNMENT ( #93, #74, ( #227 ) ) ;
#110 = FACE_OUTER_BOUND ( 'NONE', #181, .T. ) ;
#111 = DIRECTION ( 'NONE',  ( -1.000000000000000000, 0.000000000000000000, 0.000000000000000000 ) ) ;
#112 = ORIENTED_EDGE ( 'NONE', *, *, #59, .F. ) ;
#113 = CC_DESIGN_PERSON_AND_ORGANIZATION_ASSIGNMENT ( #209, #232, ( #18 ) ) ;
#114 = EDGE_CURVE ( 'NONE', #27, #60, #167, .T. ) ;
#115 = ORIENTED_EDGE ( 'NONE', *, *, #4, .T. ) ;
#116 = CC_DESIGN_APPROVAL ( #65, ( #10 ) ) ;
#117 = EDGE_CURVE ( 'NONE', #96, #212, #249, .T. ) ;
#118 = ORIENTED_EDGE ( 'NONE', *, *, #92, .T. ) ;
#119 = CARTESIAN_POINT ( 'NONE',  ( 0.000000000000000000, 0.000000000000000000, 0.000000000000000000 ) ) ;
#120 = MECHANICAL_CONTEXT ( 'NONE', #33, 'mechanical' ) ;
#121 = ORIENTED_EDGE ( 'NONE', *, *, #4, .F. ) ;
#122 = ORIENTED_EDGE ( 'NONE', *, *, #114, .T. ) ;
#123 = EDGE_LOOP ( 'NONE', ( #99, #139, #162, #79 ) ) ;
#124 = CIRCLE ( 'NONE', #207, 2.000000000000000000 ) ;
#125 = ORIENTED_EDGE ( 'NONE', *, *, #43, .T. ) ;
#126 = ADVANCED_FACE ( 'NONE', ( #41 ), #168, .T. ) ;
#127 = DIRECTION ( 'NONE',  ( -1.000000000000000000, 0.000000000000000000, 0.000000000000000000 ) ) ;
#128 = LOCAL_TIME ( 13, 2, 59.00000000000000000, #61 ) ;
#129 = DIRECTION ( 'NONE',  ( 0.000000000000000000, 0.000000000000000000, 1.000000000000000000 ) ) ;
#130 = DIRECTION ( 'NONE',  ( 0.000000000000000000, 0.000000000000000000, 1.000000000000000000 ) ) ;
#131 = CARTESIAN_POINT ( 'NONE',  ( 0.000000000000000000, 0.000000000000000000, 125.0000000000000000 ) ) ;
#132 = APPLICATION_CONTEXT ( 'configuration controlled 3d designs of mechanical parts and assemblies' ) ;
#133 = COORDINATED_UNIVERSAL_TIME_OFFSET ( 1, 0, .AHEAD. ) ;
#134 = PERSON ( 'NEURÈENÝ', 'NEURÈENÝ', 'NEURÈENÝ', ('NEURÈENÝ'), ('NEURÈENÝ'), ('NEURÈENÝ') ) ;
#135 = CC_DESIGN_PERSON_AND_ORGANIZATION_ASSIGNMENT ( #188, #254, ( #10 ) ) ;
#136 = AXIS2_PLACEMENT_3D ( 'NONE', #157, #8, #137 ) ;
#137 = DIRECTION ( 'NONE',  ( 1.000000000000000000, 0.000000000000000000, 0.000000000000000000 ) ) ;
#138 = DATE_AND_TIME ( #219, #170 ) ;
#139 = ORIENTED_EDGE ( 'NONE', *, *, #105, .F. ) ;
#140 =( GEOMETRIC_REPRESENTATION_CONTEXT ( 3 ) GLOBAL_UNCERTAINTY_ASSIGNED_CONTEXT ( ( #77 ) ) GLOBAL_UNIT_ASSIGNED_CONTEXT ( ( #164, #7, #20 ) ) REPRESENTATION_CONTEXT ( 'NONE', 'WORKASPACE' ) );
#141 = DIRECTION ( 'NONE',  ( -0.000000000000000000, -0.000000000000000000, -1.000000000000000000 ) ) ;
#142 = DIRECTION ( 'NONE',  ( 0.000000000000000000, 0.000000000000000000, 1.000000000000000000 ) ) ;
#143 = APPROVAL_ROLE ( '' ) ;
#144 = CARTESIAN_POINT ( 'NONE',  ( 0.000000000000000000, 0.000000000000000000, 125.0000000000000000 ) ) ;
#145 = LOCAL_TIME ( 13, 2, 59.00000000000000000, #34 ) ;
#146 = APPROVAL ( #231, 'NEURÈENÝ' ) ;
#147 = PERSON_AND_ORGANIZATION ( #134, #32 ) ;
#148 = SECURITY_CLASSIFICATION_LEVEL ( 'unclassified' ) ;
#149 = CIRCLE ( 'NONE', #176, 2.000000000000000000 ) ;
#150 = CARTESIAN_POINT ( 'NONE',  ( -4.000000000000000000, 0.000000000000000000, 3.000000000000000000 ) ) ;
#151 = PLANE ( 'NONE',  #248 ) ;
#152 = CALENDAR_DATE ( 2023, 12, 2 ) ;
#153 = EDGE_LOOP ( 'NONE', ( #98, #49, #118, #80 ) ) ;
#154 = ORIENTED_EDGE ( 'NONE', *, *, #245, .T. ) ;
#155 = CC_DESIGN_SECURITY_CLASSIFICATION ( #18, ( #10 ) ) ;
#156 = APPROVAL_DATE_TIME ( #138, #102 ) ;
#157 = CARTESIAN_POINT ( 'NONE',  ( 0.000000000000000000, 0.000000000000000000, 0.000000000000000000 ) ) ;
#158 = ORIENTED_EDGE ( 'NONE', *, *, #92, .F. ) ;
#159 = APPROVAL_STATUS ( 'not_yet_approved' ) ;
#160 = ORIENTED_EDGE ( 'NONE', *, *, #54, .T. ) ;
#161 = CIRCLE ( 'NONE', #100, 4.000000000000000000 ) ;
#162 = ORIENTED_EDGE ( 'NONE', *, *, #48, .T. ) ;
#163 = CARTESIAN_POINT ( 'NONE',  ( 0.000000000000000000, 0.000000000000000000, 3.000000000000000000 ) ) ;
#164 =( LENGTH_UNIT ( ) NAMED_UNIT ( * ) SI_UNIT ( .MILLI., .METRE. ) );
#165 = VERTEX_POINT ( 'NONE', #15 ) ;
#166 = APPLICATION_PROTOCOL_DEFINITION ( 'international standard', 'config_control_design', 1994, #33 ) ;
#167 = CIRCLE ( 'NONE', #213, 4.000000000000000000 ) ;
#168 = PLANE ( 'NONE',  #193 ) ;
#169 = APPLICATION_PROTOCOL_DEFINITION ( 'international standard', 'config_control_design', 1994, #132 ) ;
#170 = LOCAL_TIME ( 13, 2, 59.00000000000000000, #133 ) ;
#171 = LINE ( 'NONE', #150, #88 ) ;
#172 = DIRECTION ( 'NONE',  ( 1.000000000000000000, 0.000000000000000000, -0.000000000000000000 ) ) ;
#173 = AXIS2_PLACEMENT_3D ( 'NONE', #119, #198, #107 ) ;
#174 = ORIENTED_EDGE ( 'NONE', *, *, #54, .F. ) ;
#175 = SHAPE_DEFINITION_REPRESENTATION ( #46, #63 ) ;
#176 = AXIS2_PLACEMENT_3D ( 'NONE', #180, #182, #64 ) ;
#177 = CC_DESIGN_DATE_AND_TIME_ASSIGNMENT ( #76, #215, ( #18 ) ) ;
#178 = CARTESIAN_POINT ( 'NONE',  ( 0.000000000000000000, 0.000000000000000000, 3.000000000000000000 ) ) ;
#179 = ORIENTED_EDGE ( 'NONE', *, *, #105, .T. ) ;
#180 = CARTESIAN_POINT ( 'NONE',  ( 0.000000000000000000, 0.000000000000000000, 125.0000000000000000 ) ) ;
#181 = EDGE_LOOP ( 'NONE', ( #179, #122 ) ) ;
#182 = DIRECTION ( 'NONE',  ( 0.000000000000000000, 0.000000000000000000, 1.000000000000000000 ) ) ;
#183 = DIRECTION ( 'NONE',  ( -0.000000000000000000, -0.000000000000000000, -1.000000000000000000 ) ) ;
#184 = CIRCLE ( 'NONE', #72, 2.000000000000000000 ) ;
#185 = PRODUCT_RELATED_PRODUCT_CATEGORY ( 'detail', '', ( #236 ) ) ;
#186 = CYLINDRICAL_SURFACE ( 'NONE', #78, 2.000000000000000000 ) ;
#187 = PERSON_AND_ORGANIZATION ( #134, #32 ) ;
#188 = PERSON_AND_ORGANIZATION ( #134, #32 ) ;
#189 = DIRECTION ( 'NONE',  ( 1.000000000000000000, 0.000000000000000000, 0.000000000000000000 ) ) ;
#190 = EDGE_CURVE ( 'NONE', #27, #165, #206, .T. ) ;
#191 = CYLINDRICAL_SURFACE ( 'NONE', #108, 2.000000000000000000 ) ;
#192 = CARTESIAN_POINT ( 'NONE',  ( 0.000000000000000000, 0.000000000000000000, 0.000000000000000000 ) ) ;
#193 = AXIS2_PLACEMENT_3D ( 'NONE', #82, #68, #225 ) ;
#194 = DIRECTION ( 'NONE',  ( 1.000000000000000000, 0.000000000000000000, 0.000000000000000000 ) ) ;
#195 = CC_DESIGN_PERSON_AND_ORGANIZATION_ASSIGNMENT ( #39, #2, ( #236 ) ) ;
#196 = PLANE ( 'NONE',  #6 ) ;
#197 = EDGE_LOOP ( 'NONE', ( #115, #125 ) ) ;
#198 = DIRECTION ( 'NONE',  ( 0.000000000000000000, 0.000000000000000000, 1.000000000000000000 ) ) ;
#199 = ORIENTED_EDGE ( 'NONE', *, *, #43, .F. ) ;
#200 = CC_DESIGN_APPROVAL ( #102, ( #18 ) ) ;
#201 = FACE_OUTER_BOUND ( 'NONE', #101, .T. ) ;
#202 = DIRECTION ( 'NONE',  ( -0.000000000000000000, -0.000000000000000000, -1.000000000000000000 ) ) ;
#203 = VECTOR ( 'NONE', #13, 1000.000000000000000 ) ;
#204 = CARTESIAN_POINT ( 'NONE',  ( -2.000000000000000000, 0.000000000000000000, 125.0000000000000000 ) ) ;
#205 = PERSON_AND_ORGANIZATION ( #134, #32 ) ;
#206 = LINE ( 'NONE', #37, #73 ) ;
#207 = AXIS2_PLACEMENT_3D ( 'NONE', #81, #42, #1 ) ;
#208 = DIRECTION ( 'NONE',  ( -0.000000000000000000, -0.000000000000000000, -1.000000000000000000 ) ) ;
#209 = PERSON_AND_ORGANIZATION ( #134, #32 ) ;
#210 = FACE_OUTER_BOUND ( 'NONE', #30, .T. ) ;
#211 = COORDINATED_UNIVERSAL_TIME_OFFSET ( 1, 0, .AHEAD. ) ;
#212 = VERTEX_POINT ( 'NONE', #250 ) ;
#213 = AXIS2_PLACEMENT_3D ( 'NONE', #55, #86, #189 ) ;
#214 = VERTEX_POINT ( 'NONE', #67 ) ;
#215 = DATE_TIME_ROLE ( 'classification_date' ) ;
#216 = ORIENTED_EDGE ( 'NONE', *, *, #245, .F. ) ;
#217 = DIRECTION ( 'NONE',  ( 1.000000000000000000, 0.000000000000000000, 0.000000000000000000 ) ) ;
#218 = AXIS2_PLACEMENT_3D ( 'NONE', #238, #130, #21 ) ;
#219 = CALENDAR_DATE ( 2023, 12, 2 ) ;
#220 = ADVANCED_FACE ( 'NONE', ( #104 ), #16, .T. ) ;
#221 = ADVANCED_FACE ( 'NONE', ( #210 ), #151, .F. ) ;
#222 = ORIENTED_EDGE ( 'NONE', *, *, #59, .T. ) ;
#223 = CYLINDRICAL_SURFACE ( 'NONE', #237, 4.000000000000000000 ) ;
#224 = APPROVAL_ROLE ( '' ) ;
#225 = DIRECTION ( 'NONE',  ( 1.000000000000000000, 0.000000000000000000, -0.000000000000000000 ) ) ;
#226 = DIRECTION ( 'NONE',  ( 1.000000000000000000, 0.000000000000000000, -0.000000000000000000 ) ) ;
#227 = PRODUCT_DEFINITION ( 'NEZNÁMÝ', '', #10, #12 ) ;
#228 = AXIS2_PLACEMENT_3D ( 'NONE', #57, #87, #58 ) ;
#229 = CARTESIAN_POINT ( 'NONE',  ( -2.000000000000000000, 0.000000000000000000, 125.0000000000000000 ) ) ;
#230 = ADVANCED_FACE ( 'NONE', ( #3 ), #191, .T. ) ;
#231 = APPROVAL_STATUS ( 'not_yet_approved' ) ;
#232 = PERSON_AND_ORGANIZATION_ROLE ( 'classification_officer' ) ;
#233 = ADVANCED_FACE ( 'NONE', ( #44, #110 ), #196, .T. ) ;
#234 = DATE_AND_TIME ( #152, #38 ) ;
#235 = ORIENTED_EDGE ( 'NONE', *, *, #66, .F. ) ;
#236 = PRODUCT ( '0bf4', '0bf4', '', ( #120 ) ) ;
#237 = AXIS2_PLACEMENT_3D ( 'NONE', #178, #9, #52 ) ;
#238 = CARTESIAN_POINT ( 'NONE',  ( 0.000000000000000000, 0.000000000000000000, 3.000000000000000000 ) ) ;
#239 = ADVANCED_FACE ( 'NONE', ( #243 ), #223, .T. ) ;
#240 = CC_DESIGN_APPROVAL ( #146, ( #227 ) ) ;
#241 = MANIFOLD_SOLID_BREP ( 'Pøidat vysunutím3', #71 ) ;
#242 = VERTEX_POINT ( 'NONE', #31 ) ;
#243 = FACE_OUTER_BOUND ( 'NONE', #123, .T. ) ;
#244 = VERTEX_POINT ( 'NONE', #28 ) ;
#245 = EDGE_CURVE ( 'NONE', #242, #244, #75, .T. ) ;
#246 = APPROVAL_STATUS ( 'not_yet_approved' ) ;
#247 = DIRECTION ( 'NONE',  ( 0.000000000000000000, 0.000000000000000000, 1.000000000000000000 ) ) ;
#248 = AXIS2_PLACEMENT_3D ( 'NONE', #192, #91, #172 ) ;
#249 = LINE ( 'NONE', #204, #255 ) ;
#250 = CARTESIAN_POINT ( 'NONE',  ( -2.000000000000000000, 0.000000000000000000, 3.000000000000000000 ) ) ;
#251 = CARTESIAN_POINT ( 'NONE',  ( 0.000000000000000000, 0.000000000000000000, 3.000000000000000000 ) ) ;
#252 = APPROVAL_DATE_TIME ( #85, #65 ) ;
#253 = DIRECTION ( 'NONE',  ( 1.000000000000000000, 0.000000000000000000, 0.000000000000000000 ) ) ;
#254 = PERSON_AND_ORGANIZATION_ROLE ( 'design_supplier' ) ;
#255 = VECTOR ( 'NONE', #141, 1000.000000000000000 ) ;
ENDSEC;
END-ISO-10303-21;
