ISO-10303-21;
HEADER;
FILE_DESCRIPTION (( 'STEP AP203' ),
    '1' );
FILE_NAME ('2776.STEP',
    '2023-02-12T10:57:25',
    ( '' ),
    ( '' ),
    'SwSTEP 2.0',
    'SolidWorks 2019',
    '' );
FILE_SCHEMA (( 'CONFIG_CONTROL_DESIGN' ));
ENDSEC;

DATA;
#1 = DIRECTION ( 'NONE',  ( 0.000000000000000000, 0.000000000000000000, 1.000000000000000000 ) ) ;
#2 = DIRECTION ( 'NONE',  ( 0.000000000000000000, 0.000000000000000000, 1.000000000000000000 ) ) ;
#3 = AXIS2_PLACEMENT_3D ( 'NONE', #248, #77, #107 ) ;
#4 = APPROVAL_STATUS ( 'not_yet_approved' ) ;
#5 = CARTESIAN_POINT ( 'NONE',  ( 0.000000000000000000, 0.000000000000000000, 5.000000000000000000 ) ) ;
#6 = ADVANCED_FACE ( 'NONE', ( #25 ), #97, .T. ) ;
#7 = AXIS2_PLACEMENT_3D ( 'NONE', #90, #199, #175 ) ;
#8 = DIRECTION ( 'NONE',  ( 1.000000000000000000, 0.000000000000000000, 0.000000000000000000 ) ) ;
#9 = CIRCLE ( 'NONE', #21, 8.000000000000000000 ) ;
#10 = APPLICATION_CONTEXT ( 'configuration controlled 3d designs of mechanical parts and assemblies' ) ;
#11 = CARTESIAN_POINT ( 'NONE',  ( 0.000000000000000000, 0.000000000000000000, 5.000000000000000000 ) ) ;
#12 = SECURITY_CLASSIFICATION_LEVEL ( 'unclassified' ) ;
#13 = CARTESIAN_POINT ( 'NONE',  ( -8.000000000000000000, 0.000000000000000000, 5.000000000000000000 ) ) ;
#14 = DIRECTION ( 'NONE',  ( -0.000000000000000000, -0.000000000000000000, -1.000000000000000000 ) ) ;
#15 = CARTESIAN_POINT ( 'NONE',  ( 8.000000000000000000, 9.797174393178825657E-16, 5.000000000000000000 ) ) ;
#16 = CIRCLE ( 'NONE', #33, 5.500000000000000000 ) ;
#17 = DIRECTION ( 'NONE',  ( 0.000000000000000000, 0.000000000000000000, 1.000000000000000000 ) ) ;
#18 = CC_DESIGN_APPROVAL ( #167, ( #101 ) ) ;
#19 = EDGE_CURVE ( 'NONE', #84, #51, #252, .T. ) ;
#20 = CARTESIAN_POINT ( 'NONE',  ( 5.500000000000000000, 6.735557395310442023E-16, 200.0000000000000000 ) ) ;
#21 = AXIS2_PLACEMENT_3D ( 'NONE', #5, #48, #208 ) ;
#22 = APPLICATION_PROTOCOL_DEFINITION ( 'international standard', 'config_control_design', 1994, #10 ) ;
#23 = VECTOR ( 'NONE', #134, 1000.000000000000000 ) ;
#24 = APPROVAL_ROLE ( '' ) ;
#25 = FACE_OUTER_BOUND ( 'NONE', #73, .T. ) ;
#26 = AXIS2_PLACEMENT_3D ( 'NONE', #58, #81, #215 ) ;
#27 = ORIENTED_EDGE ( 'NONE', *, *, #100, .T. ) ;
#28 = EDGE_CURVE ( 'NONE', #234, #47, #230, .T. ) ;
#29 = CIRCLE ( 'NONE', #45, 5.500000000000000000 ) ;
#30 = FACE_OUTER_BOUND ( 'NONE', #139, .T. ) ;
#31 = ADVANCED_FACE ( 'NONE', ( #221 ), #120, .T. ) ;
#32 = AXIS2_PLACEMENT_3D ( 'NONE', #246, #117, #191 ) ;
#33 = AXIS2_PLACEMENT_3D ( 'NONE', #251, #59, #217 ) ;
#34 = CARTESIAN_POINT ( 'NONE',  ( 0.000000000000000000, 0.000000000000000000, 0.000000000000000000 ) ) ;
#35 = CC_DESIGN_PERSON_AND_ORGANIZATION_ASSIGNMENT ( #110, #201, ( #101 ) ) ;
#36 = PLANE ( 'NONE',  #255 ) ;
#37 = DIRECTION ( 'NONE',  ( -0.000000000000000000, -0.000000000000000000, -1.000000000000000000 ) ) ;
#38 = CC_DESIGN_DATE_AND_TIME_ASSIGNMENT ( #56, #79, ( #71 ) ) ;
#39 = DIRECTION ( 'NONE',  ( -0.000000000000000000, -0.000000000000000000, -1.000000000000000000 ) ) ;
#40 = DIRECTION ( 'NONE',  ( -1.000000000000000000, 0.000000000000000000, 0.000000000000000000 ) ) ;
#41 = ORIENTED_EDGE ( 'NONE', *, *, #104, .T. ) ;
#42 = APPROVAL_ROLE ( '' ) ;
#43 = FACE_OUTER_BOUND ( 'NONE', #176, .T. ) ;
#44 = DIRECTION ( 'NONE',  ( 0.000000000000000000, 0.000000000000000000, 1.000000000000000000 ) ) ;
#45 = AXIS2_PLACEMENT_3D ( 'NONE', #122, #1, #161 ) ;
#46 = MECHANICAL_CONTEXT ( 'NONE', #178, 'mechanical' ) ;
#47 = VERTEX_POINT ( 'NONE', #157 ) ;
#48 = DIRECTION ( 'NONE',  ( 0.000000000000000000, 0.000000000000000000, 1.000000000000000000 ) ) ;
#49 = PERSON_AND_ORGANIZATION_ROLE ( 'creator' ) ;
#50 = ORIENTED_EDGE ( 'NONE', *, *, #212, .F. ) ;
#51 = VERTEX_POINT ( 'NONE', #237 ) ;
#52 = LOCAL_TIME ( 11, 57, 25.00000000000000000, #238 ) ;
#53 = PERSON_AND_ORGANIZATION_ROLE ( 'design_supplier' ) ;
#54 = AXIS2_PLACEMENT_3D ( 'NONE', #247, #60, #131 ) ;
#55 = FACE_OUTER_BOUND ( 'NONE', #253, .T. ) ;
#56 = DATE_AND_TIME ( #232, #95 ) ;
#57 = CARTESIAN_POINT ( 'NONE',  ( 0.000000000000000000, 0.000000000000000000, 200.0000000000000000 ) ) ;
#58 = CARTESIAN_POINT ( 'NONE',  ( 0.000000000000000000, 0.000000000000000000, 0.000000000000000000 ) ) ;
#59 = DIRECTION ( 'NONE',  ( 0.000000000000000000, 0.000000000000000000, 1.000000000000000000 ) ) ;
#60 = DIRECTION ( 'NONE',  ( 0.000000000000000000, 0.000000000000000000, 1.000000000000000000 ) ) ;
#61 = DIRECTION ( 'NONE',  ( 1.000000000000000000, 0.000000000000000000, 0.000000000000000000 ) ) ;
#62 = ORIENTED_EDGE ( 'NONE', *, *, #126, .F. ) ;
#63 = CARTESIAN_POINT ( 'NONE',  ( 8.000000000000000000, 9.797174393178825657E-16, 0.000000000000000000 ) ) ;
#64 = APPROVAL_DATE_TIME ( #179, #167 ) ;
#65 = ORIENTED_EDGE ( 'NONE', *, *, #135, .T. ) ;
#66 = CIRCLE ( 'NONE', #192, 5.500000000000000000 ) ;
#67 = DATE_TIME_ROLE ( 'creation_date' ) ;
#68 = DESIGN_CONTEXT ( 'detailed design', #10, 'design' ) ;
#69 = FACE_BOUND ( 'NONE', #142, .T. ) ;
#70 = CC_DESIGN_PERSON_AND_ORGANIZATION_ASSIGNMENT ( #144, #49, ( #224 ) ) ;
#71 = SECURITY_CLASSIFICATION ( '', '', #12 ) ;
#72 = APPROVAL_STATUS ( 'not_yet_approved' ) ;
#73 = EDGE_LOOP ( 'NONE', ( #111, #145, #225, #156 ) ) ;
#74 =( NAMED_UNIT ( * ) SI_UNIT ( $, .STERADIAN. ) SOLID_ANGLE_UNIT ( ) );
#75 = LOCAL_TIME ( 11, 57, 25.00000000000000000, #127 ) ;
#76 = ORIENTED_EDGE ( 'NONE', *, *, #19, .T. ) ;
#77 = DIRECTION ( 'NONE',  ( 0.000000000000000000, 0.000000000000000000, 1.000000000000000000 ) ) ;
#78 = CC_DESIGN_PERSON_AND_ORGANIZATION_ASSIGNMENT ( #172, #196, ( #71 ) ) ;
#79 = DATE_TIME_ROLE ( 'classification_date' ) ;
#80 = CARTESIAN_POINT ( 'NONE',  ( -5.500000000000000000, 0.000000000000000000, 5.000000000000000000 ) ) ;
#81 = DIRECTION ( 'NONE',  ( 0.000000000000000000, 0.000000000000000000, 1.000000000000000000 ) ) ;
#82 = APPROVAL ( #108, 'NEURÈENÝ' ) ;
#83 = CARTESIAN_POINT ( 'NONE',  ( 0.000000000000000000, 0.000000000000000000, 200.0000000000000000 ) ) ;
#84 = VERTEX_POINT ( 'NONE', #235 ) ;
#85 = AXIS2_PLACEMENT_3D ( 'NONE', #11, #249, #8 ) ;
#86 = ORIENTED_EDGE ( 'NONE', *, *, #236, .F. ) ;
#87 = ORGANIZATION ( 'NEURÈENÝ', 'NEURÈENÝ', '' ) ;
#88 = DIRECTION ( 'NONE',  ( 1.000000000000000000, 0.000000000000000000, 0.000000000000000000 ) ) ;
#89 = ADVANCED_BREP_SHAPE_REPRESENTATION ( '2776', ( #112, #3 ), #180 ) ;
#90 = CARTESIAN_POINT ( 'NONE',  ( 0.000000000000000000, 0.000000000000000000, 200.0000000000000000 ) ) ;
#91 = PERSON_AND_ORGANIZATION ( #200, #87 ) ;
#92 = PERSON_AND_ORGANIZATION ( #200, #87 ) ;
#93 = PRODUCT_DEFINITION_SHAPE ( 'NONE', 'NONE',  #101 ) ;
#94 = EDGE_CURVE ( 'NONE', #234, #106, #193, .T. ) ;
#95 = LOCAL_TIME ( 11, 57, 25.00000000000000000, #233 ) ;
#96 = ORIENTED_EDGE ( 'NONE', *, *, #184, .F. ) ;
#97 = CYLINDRICAL_SURFACE ( 'NONE', #32, 5.500000000000000000 ) ;
#98 = ORIENTED_EDGE ( 'NONE', *, *, #28, .T. ) ;
#99 = APPLICATION_PROTOCOL_DEFINITION ( 'international standard', 'config_control_design', 1994, #178 ) ;
#100 = EDGE_CURVE ( 'NONE', #51, #159, #195, .T. ) ;
#101 = PRODUCT_DEFINITION ( 'NEZNÁMÝ', '', #224, #68 ) ;
#102 = DIRECTION ( 'NONE',  ( -1.000000000000000000, 0.000000000000000000, 0.000000000000000000 ) ) ;
#103 = CYLINDRICAL_SURFACE ( 'NONE', #143, 8.000000000000000000 ) ;
#104 = EDGE_CURVE ( 'NONE', #47, #234, #66, .T. ) ;
#105 = PRODUCT ( '2776', '2776', '', ( #46 ) ) ;
#106 = VERTEX_POINT ( 'NONE', #80 ) ;
#107 = DIRECTION ( 'NONE',  ( 1.000000000000000000, 0.000000000000000000, 0.000000000000000000 ) ) ;
#108 = APPROVAL_STATUS ( 'not_yet_approved' ) ;
#109 = CC_DESIGN_SECURITY_CLASSIFICATION ( #71, ( #224 ) ) ;
#110 = PERSON_AND_ORGANIZATION ( #200, #87 ) ;
#111 = ORIENTED_EDGE ( 'NONE', *, *, #104, .F. ) ;
#112 = MANIFOLD_SOLID_BREP ( 'Pøidat vysunutím3', #141 ) ;
#113 = ADVANCED_FACE ( 'NONE', ( #55 ), #130, .T. ) ;
#114 = AXIS2_PLACEMENT_3D ( 'NONE', #34, #254, #61 ) ;
#115 = ORIENTED_EDGE ( 'NONE', *, *, #19, .F. ) ;
#116 = DATE_AND_TIME ( #209, #242 ) ;
#117 = DIRECTION ( 'NONE',  ( -0.000000000000000000, -0.000000000000000000, -1.000000000000000000 ) ) ;
#118 = VECTOR ( 'NONE', #241, 1000.000000000000000 ) ;
#119 = LINE ( 'NONE', #15, #23 ) ;
#120 = CYLINDRICAL_SURFACE ( 'NONE', #7, 5.500000000000000000 ) ;
#121 = ORIENTED_EDGE ( 'NONE', *, *, #28, .F. ) ;
#122 = CARTESIAN_POINT ( 'NONE',  ( 0.000000000000000000, 0.000000000000000000, 5.000000000000000000 ) ) ;
#123 = VERTEX_POINT ( 'NONE', #63 ) ;
#124 = CC_DESIGN_DATE_AND_TIME_ASSIGNMENT ( #203, #67, ( #101 ) ) ;
#125 = COORDINATED_UNIVERSAL_TIME_OFFSET ( 1, 0, .AHEAD. ) ;
#126 = EDGE_CURVE ( 'NONE', #123, #159, #140, .T. ) ;
#127 = COORDINATED_UNIVERSAL_TIME_OFFSET ( 1, 0, .AHEAD. ) ;
#128 = APPROVAL_DATE_TIME ( #116, #82 ) ;
#129 = ORIENTED_EDGE ( 'NONE', *, *, #236, .T. ) ;
#130 = CYLINDRICAL_SURFACE ( 'NONE', #136, 8.000000000000000000 ) ;
#131 = DIRECTION ( 'NONE',  ( 1.000000000000000000, 0.000000000000000000, -0.000000000000000000 ) ) ;
#132 = FACE_OUTER_BOUND ( 'NONE', #153, .T. ) ;
#133 = DIRECTION ( 'NONE',  ( 1.000000000000000000, 0.000000000000000000, -0.000000000000000000 ) ) ;
#134 = DIRECTION ( 'NONE',  ( -0.000000000000000000, -0.000000000000000000, -1.000000000000000000 ) ) ;
#135 = EDGE_CURVE ( 'NONE', #159, #123, #151, .T. ) ;
#136 = AXIS2_PLACEMENT_3D ( 'NONE', #198, #14, #102 ) ;
#137 = PERSON_AND_ORGANIZATION ( #200, #87 ) ;
#138 = ORIENTED_EDGE ( 'NONE', *, *, #94, .T. ) ;
#139 = EDGE_LOOP ( 'NONE', ( #98, #41 ) ) ;
#140 = CIRCLE ( 'NONE', #26, 8.000000000000000000 ) ;
#141 = CLOSED_SHELL ( 'NONE', ( #6, #170, #113, #223, #207, #31, #240 ) ) ;
#142 = EDGE_LOOP ( 'NONE', ( #86, #96 ) ) ;
#143 = AXIS2_PLACEMENT_3D ( 'NONE', #218, #37, #40 ) ;
#144 = PERSON_AND_ORGANIZATION ( #200, #87 ) ;
#145 = ORIENTED_EDGE ( 'NONE', *, *, #212, .T. ) ;
#146 = EDGE_CURVE ( 'NONE', #84, #123, #119, .T. ) ;
#147 = COORDINATED_UNIVERSAL_TIME_OFFSET ( 1, 0, .AHEAD. ) ;
#148 = LOCAL_TIME ( 11, 57, 25.00000000000000000, #125 ) ;
#149 = APPROVAL_ROLE ( '' ) ;
#150 = DATE_AND_TIME ( #171, #75 ) ;
#151 = CIRCLE ( 'NONE', #114, 8.000000000000000000 ) ;
#152 = APPROVAL_PERSON_ORGANIZATION ( #137, #82, #149 ) ;
#153 = EDGE_LOOP ( 'NONE', ( #115, #174, #245, #183 ) ) ;
#154 = APPROVAL_DATE_TIME ( #150, #160 ) ;
#155 = DIRECTION ( 'NONE',  ( -0.000000000000000000, -0.000000000000000000, -1.000000000000000000 ) ) ;
#156 = ORIENTED_EDGE ( 'NONE', *, *, #94, .F. ) ;
#157 = CARTESIAN_POINT ( 'NONE',  ( 5.500000000000000000, 6.735557395310442023E-16, 200.0000000000000000 ) ) ;
#158 =( NAMED_UNIT ( * ) PLANE_ANGLE_UNIT ( ) SI_UNIT ( $, .RADIAN. ) );
#159 = VERTEX_POINT ( 'NONE', #181 ) ;
#160 = APPROVAL ( #72, 'NEURÈENÝ' ) ;
#161 = DIRECTION ( 'NONE',  ( 1.000000000000000000, 0.000000000000000000, 0.000000000000000000 ) ) ;
#162 = EDGE_LOOP ( 'NONE', ( #50, #121, #138, #129 ) ) ;
#163 = UNCERTAINTY_MEASURE_WITH_UNIT (LENGTH_MEASURE( 1.000000000000000082E-05 ), #219, 'distance_accuracy_value', 'NONE');
#164 = VECTOR ( 'NONE', #155, 1000.000000000000000 ) ;
#165 = LINE ( 'NONE', #20, #118 ) ;
#166 = PERSON_AND_ORGANIZATION ( #200, #87 ) ;
#167 = APPROVAL ( #4, 'NEURÈENÝ' ) ;
#168 = ORIENTED_EDGE ( 'NONE', *, *, #210, .T. ) ;
#169 = CARTESIAN_POINT ( 'NONE',  ( 0.000000000000000000, 0.000000000000000000, 200.0000000000000000 ) ) ;
#170 = ADVANCED_FACE ( 'NONE', ( #132 ), #103, .T. ) ;
#171 = CALENDAR_DATE ( 2023, 12, 2 ) ;
#172 = PERSON_AND_ORGANIZATION ( #200, #87 ) ;
#173 = CARTESIAN_POINT ( 'NONE',  ( -5.500000000000000000, 0.000000000000000000, 200.0000000000000000 ) ) ;
#174 = ORIENTED_EDGE ( 'NONE', *, *, #146, .T. ) ;
#175 = DIRECTION ( 'NONE',  ( -1.000000000000000000, 0.000000000000000000, 0.000000000000000000 ) ) ;
#176 = EDGE_LOOP ( 'NONE', ( #168, #76 ) ) ;
#177 = PRODUCT_RELATED_PRODUCT_CATEGORY ( 'detail', '', ( #105 ) ) ;
#178 = APPLICATION_CONTEXT ( 'configuration controlled 3d designs of mechanical parts and assemblies' ) ;
#179 = DATE_AND_TIME ( #204, #52 ) ;
#180 =( GEOMETRIC_REPRESENTATION_CONTEXT ( 3 ) GLOBAL_UNCERTAINTY_ASSIGNED_CONTEXT ( ( #163 ) ) GLOBAL_UNIT_ASSIGNED_CONTEXT ( ( #219, #158, #74 ) ) REPRESENTATION_CONTEXT ( 'NONE', 'WORKASPACE' ) );
#181 = CARTESIAN_POINT ( 'NONE',  ( -8.000000000000000000, 0.000000000000000000, 0.000000000000000000 ) ) ;
#182 = CARTESIAN_POINT ( 'NONE',  ( 5.500000000000000000, 6.735557395310442023E-16, 5.000000000000000000 ) ) ;
#183 = ORIENTED_EDGE ( 'NONE', *, *, #100, .F. ) ;
#184 = EDGE_CURVE ( 'NONE', #227, #106, #29, .T. ) ;
#185 = CC_DESIGN_APPROVAL ( #82, ( #224 ) ) ;
#186 = CC_DESIGN_PERSON_AND_ORGANIZATION_ASSIGNMENT ( #166, #53, ( #224 ) ) ;
#187 = DIRECTION ( 'NONE',  ( 1.000000000000000000, 0.000000000000000000, -0.000000000000000000 ) ) ;
#188 = CARTESIAN_POINT ( 'NONE',  ( 0.000000000000000000, 0.000000000000000000, 0.000000000000000000 ) ) ;
#189 = AXIS2_PLACEMENT_3D ( 'NONE', #83, #2, #88 ) ;
#190 = EDGE_LOOP ( 'NONE', ( #222, #62 ) ) ;
#191 = DIRECTION ( 'NONE',  ( -1.000000000000000000, 0.000000000000000000, 0.000000000000000000 ) ) ;
#192 = AXIS2_PLACEMENT_3D ( 'NONE', #57, #17, #250 ) ;
#193 = LINE ( 'NONE', #220, #244 ) ;
#194 = SHAPE_DEFINITION_REPRESENTATION ( #93, #89 ) ;
#195 = LINE ( 'NONE', #13, #164 ) ;
#196 = PERSON_AND_ORGANIZATION_ROLE ( 'classification_officer' ) ;
#197 = ORIENTED_EDGE ( 'NONE', *, *, #146, .F. ) ;
#198 = CARTESIAN_POINT ( 'NONE',  ( 0.000000000000000000, 0.000000000000000000, 5.000000000000000000 ) ) ;
#199 = DIRECTION ( 'NONE',  ( -0.000000000000000000, -0.000000000000000000, -1.000000000000000000 ) ) ;
#200 = PERSON ( 'NEURÈENÝ', 'NEURÈENÝ', 'NEURÈENÝ', ('NEURÈENÝ'), ('NEURÈENÝ'), ('NEURÈENÝ') ) ;
#201 = PERSON_AND_ORGANIZATION_ROLE ( 'creator' ) ;
#202 = CALENDAR_DATE ( 2023, 12, 2 ) ;
#203 = DATE_AND_TIME ( #202, #148 ) ;
#204 = CALENDAR_DATE ( 2023, 12, 2 ) ;
#205 = APPROVAL_PERSON_ORGANIZATION ( #92, #167, #42 ) ;
#206 = PLANE ( 'NONE',  #228 ) ;
#207 = ADVANCED_FACE ( 'NONE', ( #239 ), #206, .F. ) ;
#208 = DIRECTION ( 'NONE',  ( 1.000000000000000000, 0.000000000000000000, 0.000000000000000000 ) ) ;
#209 = CALENDAR_DATE ( 2023, 12, 2 ) ;
#210 = EDGE_CURVE ( 'NONE', #51, #84, #9, .T. ) ;
#211 = ORIENTED_EDGE ( 'NONE', *, *, #210, .F. ) ;
#212 = EDGE_CURVE ( 'NONE', #47, #227, #165, .T. ) ;
#213 = PLANE ( 'NONE',  #54 ) ;
#214 = APPROVAL_PERSON_ORGANIZATION ( #231, #160, #24 ) ;
#215 = DIRECTION ( 'NONE',  ( 1.000000000000000000, 0.000000000000000000, 0.000000000000000000 ) ) ;
#216 = CC_DESIGN_APPROVAL ( #160, ( #71 ) ) ;
#217 = DIRECTION ( 'NONE',  ( 1.000000000000000000, 0.000000000000000000, 0.000000000000000000 ) ) ;
#218 = CARTESIAN_POINT ( 'NONE',  ( 0.000000000000000000, 0.000000000000000000, 5.000000000000000000 ) ) ;
#219 =( LENGTH_UNIT ( ) NAMED_UNIT ( * ) SI_UNIT ( .MILLI., .METRE. ) );
#220 = CARTESIAN_POINT ( 'NONE',  ( -5.500000000000000000, 0.000000000000000000, 200.0000000000000000 ) ) ;
#221 = FACE_OUTER_BOUND ( 'NONE', #162, .T. ) ;
#222 = ORIENTED_EDGE ( 'NONE', *, *, #135, .F. ) ;
#223 = ADVANCED_FACE ( 'NONE', ( #69, #43 ), #213, .T. ) ;
#224 = PRODUCT_DEFINITION_FORMATION_WITH_SPECIFIED_SOURCE ( 'LIBOVOLNÝ', '', #105, .NOT_KNOWN. ) ;
#225 = ORIENTED_EDGE ( 'NONE', *, *, #184, .T. ) ;
#226 = CC_DESIGN_PERSON_AND_ORGANIZATION_ASSIGNMENT ( #91, #243, ( #105 ) ) ;
#227 = VERTEX_POINT ( 'NONE', #182 ) ;
#228 = AXIS2_PLACEMENT_3D ( 'NONE', #188, #44, #187 ) ;
#229 = DIRECTION ( 'NONE',  ( 0.000000000000000000, 0.000000000000000000, 1.000000000000000000 ) ) ;
#230 = CIRCLE ( 'NONE', #189, 5.500000000000000000 ) ;
#231 = PERSON_AND_ORGANIZATION ( #200, #87 ) ;
#232 = CALENDAR_DATE ( 2023, 12, 2 ) ;
#233 = COORDINATED_UNIVERSAL_TIME_OFFSET ( 1, 0, .AHEAD. ) ;
#234 = VERTEX_POINT ( 'NONE', #173 ) ;
#235 = CARTESIAN_POINT ( 'NONE',  ( 8.000000000000000000, 9.797174393178825657E-16, 5.000000000000000000 ) ) ;
#236 = EDGE_CURVE ( 'NONE', #106, #227, #16, .T. ) ;
#237 = CARTESIAN_POINT ( 'NONE',  ( -8.000000000000000000, 0.000000000000000000, 5.000000000000000000 ) ) ;
#238 = COORDINATED_UNIVERSAL_TIME_OFFSET ( 1, 0, .AHEAD. ) ;
#239 = FACE_OUTER_BOUND ( 'NONE', #190, .T. ) ;
#240 = ADVANCED_FACE ( 'NONE', ( #30 ), #36, .T. ) ;
#241 = DIRECTION ( 'NONE',  ( -0.000000000000000000, -0.000000000000000000, -1.000000000000000000 ) ) ;
#242 = LOCAL_TIME ( 11, 57, 25.00000000000000000, #147 ) ;
#243 = PERSON_AND_ORGANIZATION_ROLE ( 'design_owner' ) ;
#244 = VECTOR ( 'NONE', #39, 1000.000000000000000 ) ;
#245 = ORIENTED_EDGE ( 'NONE', *, *, #126, .T. ) ;
#246 = CARTESIAN_POINT ( 'NONE',  ( 0.000000000000000000, 0.000000000000000000, 200.0000000000000000 ) ) ;
#247 = CARTESIAN_POINT ( 'NONE',  ( 0.000000000000000000, 0.000000000000000000, 5.000000000000000000 ) ) ;
#248 = CARTESIAN_POINT ( 'NONE',  ( 0.000000000000000000, 0.000000000000000000, 0.000000000000000000 ) ) ;
#249 = DIRECTION ( 'NONE',  ( 0.000000000000000000, 0.000000000000000000, 1.000000000000000000 ) ) ;
#250 = DIRECTION ( 'NONE',  ( 1.000000000000000000, 0.000000000000000000, 0.000000000000000000 ) ) ;
#251 = CARTESIAN_POINT ( 'NONE',  ( 0.000000000000000000, 0.000000000000000000, 5.000000000000000000 ) ) ;
#252 = CIRCLE ( 'NONE', #85, 8.000000000000000000 ) ;
#253 = EDGE_LOOP ( 'NONE', ( #197, #211, #27, #65 ) ) ;
#254 = DIRECTION ( 'NONE',  ( 0.000000000000000000, 0.000000000000000000, 1.000000000000000000 ) ) ;
#255 = AXIS2_PLACEMENT_3D ( 'NONE', #169, #229, #133 ) ;
ENDSEC;
END-ISO-10303-21;
