ISO-10303-21;
HEADER;
FILE_DESCRIPTION (( 'STEP AP203' ),
    '1' );
FILE_NAME ('fb8a.STEP',
    '2023-02-12T11:30:47',
    ( '' ),
    ( '' ),
    'SwSTEP 2.0',
    'SolidWorks 2019',
    '' );
FILE_SCHEMA (( 'CONFIG_CONTROL_DESIGN' ));
ENDSEC;

DATA;
#1 = CALENDAR_DATE ( 2023, 12, 2 ) ;
#2 = ORIENTED_EDGE ( 'NONE', *, *, #5, .T. ) ;
#3 = APPLICATION_PROTOCOL_DEFINITION ( 'international standard', 'config_control_design', 1994, #7 ) ;
#4 = AXIS2_PLACEMENT_3D ( 'NONE', #13, #64, #106 ) ;
#5 = EDGE_CURVE ( 'NONE', #150, #116, #93, .T. ) ;
#6 = PERSON_AND_ORGANIZATION ( #70, #189 ) ;
#7 = APPLICATION_CONTEXT ( 'configuration controlled 3d designs of mechanical parts and assemblies' ) ;
#8 = PRODUCT ( 'fb8a', 'fb8a', '', ( #229 ) ) ;
#9 = DIRECTION ( 'NONE',  ( 1.000000000000000000, 0.000000000000000000, 0.000000000000000000 ) ) ;
#10 = DIRECTION ( 'NONE',  ( -0.000000000000000000, -0.000000000000000000, -1.000000000000000000 ) ) ;
#11 = DIRECTION ( 'NONE',  ( 1.000000000000000000, 0.000000000000000000, -0.000000000000000000 ) ) ;
#12 = ORIENTED_EDGE ( 'NONE', *, *, #170, .T. ) ;
#13 = CARTESIAN_POINT ( 'NONE',  ( 0.000000000000000000, 0.000000000000000000, 5.000000000000000000 ) ) ;
#14 = PRODUCT_RELATED_PRODUCT_CATEGORY ( 'detail', '', ( #8 ) ) ;
#15 = CIRCLE ( 'NONE', #26, 6.000000000000000888 ) ;
#16 = DATE_AND_TIME ( #224, #237 ) ;
#17 = CALENDAR_DATE ( 2023, 12, 2 ) ;
#18 = CLOSED_SHELL ( 'NONE', ( #80, #145, #206, #160, #219, #73, #233 ) ) ;
#19 = EDGE_LOOP ( 'NONE', ( #81, #2 ) ) ;
#20 = ORIENTED_EDGE ( 'NONE', *, *, #5, .F. ) ;
#21 = CARTESIAN_POINT ( 'NONE',  ( 0.000000000000000000, 0.000000000000000000, 315.0000000000000000 ) ) ;
#22 = AXIS2_PLACEMENT_3D ( 'NONE', #30, #61, #9 ) ;
#23 = CARTESIAN_POINT ( 'NONE',  ( 3.250000000000000444, 3.980102097228898231E-16, 5.000000000000000000 ) ) ;
#24 = EDGE_CURVE ( 'NONE', #116, #150, #181, .T. ) ;
#25 = DIRECTION ( 'NONE',  ( -0.000000000000000000, -0.000000000000000000, -1.000000000000000000 ) ) ;
#26 = AXIS2_PLACEMENT_3D ( 'NONE', #184, #199, #105 ) ;
#27 = PERSON_AND_ORGANIZATION_ROLE ( 'design_supplier' ) ;
#28 = UNCERTAINTY_MEASURE_WITH_UNIT (LENGTH_MEASURE( 1.000000000000000082E-05 ), #251, 'distance_accuracy_value', 'NONE');
#29 = DIRECTION ( 'NONE',  ( -1.000000000000000000, 0.000000000000000000, 0.000000000000000000 ) ) ;
#30 = CARTESIAN_POINT ( 'NONE',  ( 0.000000000000000000, 0.000000000000000000, 5.000000000000000000 ) ) ;
#31 = CARTESIAN_POINT ( 'NONE',  ( -3.250000000000000444, 0.000000000000000000, 315.0000000000000000 ) ) ;
#32 = CC_DESIGN_PERSON_AND_ORGANIZATION_ASSIGNMENT ( #253, #172, ( #8 ) ) ;
#33 = CARTESIAN_POINT ( 'NONE',  ( 0.000000000000000000, 0.000000000000000000, 5.000000000000000000 ) ) ;
#34 = DESIGN_CONTEXT ( 'detailed design', #230, 'design' ) ;
#35 = DIRECTION ( 'NONE',  ( -0.000000000000000000, -0.000000000000000000, -1.000000000000000000 ) ) ;
#36 = ORIENTED_EDGE ( 'NONE', *, *, #186, .F. ) ;
#37 = PERSON_AND_ORGANIZATION ( #70, #189 ) ;
#38 = ORIENTED_EDGE ( 'NONE', *, *, #190, .T. ) ;
#39 = CC_DESIGN_PERSON_AND_ORGANIZATION_ASSIGNMENT ( #122, #42, ( #147 ) ) ;
#40 = PERSON_AND_ORGANIZATION ( #70, #189 ) ;
#41 = AXIS2_PLACEMENT_3D ( 'NONE', #215, #178, #231 ) ;
#42 = PERSON_AND_ORGANIZATION_ROLE ( 'creator' ) ;
#43 = FACE_OUTER_BOUND ( 'NONE', #19, .T. ) ;
#44 = CARTESIAN_POINT ( 'NONE',  ( 0.000000000000000000, 0.000000000000000000, 315.0000000000000000 ) ) ;
#45 = DIRECTION ( 'NONE',  ( 1.000000000000000000, 0.000000000000000000, 0.000000000000000000 ) ) ;
#46 = CARTESIAN_POINT ( 'NONE',  ( 0.000000000000000000, 0.000000000000000000, 0.000000000000000000 ) ) ;
#47 = APPROVAL ( #151, 'NEURÈENÝ' ) ;
#48 = LOCAL_TIME ( 12, 30, 47.00000000000000000, #157 ) ;
#49 = CC_DESIGN_DATE_AND_TIME_ASSIGNMENT ( #56, #193, ( #68 ) ) ;
#50 = ORIENTED_EDGE ( 'NONE', *, *, #128, .F. ) ;
#51 = ORIENTED_EDGE ( 'NONE', *, *, #186, .T. ) ;
#52 = AXIS2_PLACEMENT_3D ( 'NONE', #197, #242, #29 ) ;
#53 = ORIENTED_EDGE ( 'NONE', *, *, #95, .F. ) ;
#54 = DIRECTION ( 'NONE',  ( 1.000000000000000000, 0.000000000000000000, 0.000000000000000000 ) ) ;
#55 = FACE_OUTER_BOUND ( 'NONE', #59, .T. ) ;
#56 = DATE_AND_TIME ( #232, #48 ) ;
#57 = PLANE ( 'NONE',  #244 ) ;
#58 = APPROVAL_PERSON_ORGANIZATION ( #72, #225, #188 ) ;
#59 = EDGE_LOOP ( 'NONE', ( #223, #139, #169, #138 ) ) ;
#60 = APPROVAL_DATE_TIME ( #102, #131 ) ;
#61 = DIRECTION ( 'NONE',  ( 0.000000000000000000, 0.000000000000000000, 1.000000000000000000 ) ) ;
#62 = DIRECTION ( 'NONE',  ( -0.000000000000000000, -0.000000000000000000, -1.000000000000000000 ) ) ;
#63 = ORIENTED_EDGE ( 'NONE', *, *, #140, .T. ) ;
#64 = DIRECTION ( 'NONE',  ( 0.000000000000000000, 0.000000000000000000, 1.000000000000000000 ) ) ;
#65 = EDGE_CURVE ( 'NONE', #204, #74, #220, .T. ) ;
#66 = CARTESIAN_POINT ( 'NONE',  ( 6.000000000000000888, 7.347880794884120722E-16, 0.000000000000000000 ) ) ;
#67 = EDGE_LOOP ( 'NONE', ( #133, #98, #90, #162 ) ) ;
#68 = PRODUCT_DEFINITION ( 'NEZNÁMÝ', '', #147, #34 ) ;
#69 = VECTOR ( 'NONE', #108, 1000.000000000000000 ) ;
#70 = PERSON ( 'NEURÈENÝ', 'NEURÈENÝ', 'NEURÈENÝ', ('NEURÈENÝ'), ('NEURÈENÝ'), ('NEURÈENÝ') ) ;
#71 = DIRECTION ( 'NONE',  ( -0.000000000000000000, -0.000000000000000000, -1.000000000000000000 ) ) ;
#72 = PERSON_AND_ORGANIZATION ( #70, #189 ) ;
#73 = ADVANCED_FACE ( 'NONE', ( #55 ), #110, .T. ) ;
#74 = VERTEX_POINT ( 'NONE', #91 ) ;
#75 = DATE_AND_TIME ( #1, #87 ) ;
#76 = AXIS2_PLACEMENT_3D ( 'NONE', #97, #173, #168 ) ;
#77 = CARTESIAN_POINT ( 'NONE',  ( 0.000000000000000000, 0.000000000000000000, 5.000000000000000000 ) ) ;
#78 = ADVANCED_BREP_SHAPE_REPRESENTATION ( 'fb8a', ( #208, #76 ), #185 ) ;
#79 = FACE_OUTER_BOUND ( 'NONE', #228, .T. ) ;
#80 = ADVANCED_FACE ( 'NONE', ( #164 ), #217, .T. ) ;
#81 = ORIENTED_EDGE ( 'NONE', *, *, #24, .T. ) ;
#82 = CARTESIAN_POINT ( 'NONE',  ( 0.000000000000000000, 0.000000000000000000, 5.000000000000000000 ) ) ;
#83 = SECURITY_CLASSIFICATION_LEVEL ( 'unclassified' ) ;
#84 = EDGE_CURVE ( 'NONE', #254, #153, #15, .T. ) ;
#85 = DIRECTION ( 'NONE',  ( -1.000000000000000000, 0.000000000000000000, 0.000000000000000000 ) ) ;
#86 = DIRECTION ( 'NONE',  ( 1.000000000000000000, 0.000000000000000000, -0.000000000000000000 ) ) ;
#87 = LOCAL_TIME ( 12, 30, 47.00000000000000000, #115 ) ;
#88 = FACE_OUTER_BOUND ( 'NONE', #182, .T. ) ;
#89 = CC_DESIGN_DATE_AND_TIME_ASSIGNMENT ( #75, #227, ( #205 ) ) ;
#90 = ORIENTED_EDGE ( 'NONE', *, *, #95, .T. ) ;
#91 = CARTESIAN_POINT ( 'NONE',  ( -6.000000000000000888, 0.000000000000000000, 5.000000000000000000 ) ) ;
#92 = DIRECTION ( 'NONE',  ( 0.000000000000000000, 0.000000000000000000, 1.000000000000000000 ) ) ;
#93 = CIRCLE ( 'NONE', #41, 3.250000000000000444 ) ;
#94 = DATE_AND_TIME ( #17, #222 ) ;
#95 = EDGE_CURVE ( 'NONE', #153, #254, #248, .T. ) ;
#96 = SHAPE_DEFINITION_REPRESENTATION ( #123, #78 ) ;
#97 = CARTESIAN_POINT ( 'NONE',  ( 0.000000000000000000, 0.000000000000000000, 0.000000000000000000 ) ) ;
#98 = ORIENTED_EDGE ( 'NONE', *, *, #118, .T. ) ;
#99 = ORIENTED_EDGE ( 'NONE', *, *, #149, .F. ) ;
#100 = CC_DESIGN_PERSON_AND_ORGANIZATION_ASSIGNMENT ( #40, #255, ( #68 ) ) ;
#101 = DIRECTION ( 'NONE',  ( 0.000000000000000000, 0.000000000000000000, 1.000000000000000000 ) ) ;
#102 = DATE_AND_TIME ( #238, #130 ) ;
#103 = AXIS2_PLACEMENT_3D ( 'NONE', #33, #245, #158 ) ;
#104 = CARTESIAN_POINT ( 'NONE',  ( 0.000000000000000000, 0.000000000000000000, 0.000000000000000000 ) ) ;
#105 = DIRECTION ( 'NONE',  ( 1.000000000000000000, 0.000000000000000000, 0.000000000000000000 ) ) ;
#106 = DIRECTION ( 'NONE',  ( 1.000000000000000000, 0.000000000000000000, -0.000000000000000000 ) ) ;
#107 = PLANE ( 'NONE',  #117 ) ;
#108 = DIRECTION ( 'NONE',  ( -0.000000000000000000, -0.000000000000000000, -1.000000000000000000 ) ) ;
#109 = PLANE ( 'NONE',  #4 ) ;
#110 = CYLINDRICAL_SURFACE ( 'NONE', #196, 3.250000000000000444 ) ;
#111 = APPROVAL_PERSON_ORGANIZATION ( #6, #131, #213 ) ;
#112 = EDGE_LOOP ( 'NONE', ( #99, #214 ) ) ;
#113 =( NAMED_UNIT ( * ) SI_UNIT ( $, .STERADIAN. ) SOLID_ANGLE_UNIT ( ) );
#114 = COORDINATED_UNIVERSAL_TIME_OFFSET ( 1, 0, .AHEAD. ) ;
#115 = COORDINATED_UNIVERSAL_TIME_OFFSET ( 1, 0, .AHEAD. ) ;
#116 = VERTEX_POINT ( 'NONE', #201 ) ;
#117 = AXIS2_PLACEMENT_3D ( 'NONE', #44, #180, #11 ) ;
#118 = EDGE_CURVE ( 'NONE', #204, #153, #166, .T. ) ;
#119 = CC_DESIGN_APPROVAL ( #225, ( #205 ) ) ;
#120 = COORDINATED_UNIVERSAL_TIME_OFFSET ( 1, 0, .AHEAD. ) ;
#121 = CARTESIAN_POINT ( 'NONE',  ( -3.250000000000000444, 0.000000000000000000, 5.000000000000000000 ) ) ;
#122 = PERSON_AND_ORGANIZATION ( #70, #189 ) ;
#123 = PRODUCT_DEFINITION_SHAPE ( 'NONE', 'NONE',  #68 ) ;
#124 = PERSON_AND_ORGANIZATION ( #70, #189 ) ;
#125 = LINE ( 'NONE', #246, #132 ) ;
#126 = CIRCLE ( 'NONE', #103, 3.250000000000000444 ) ;
#127 = LINE ( 'NONE', #31, #69 ) ;
#128 = EDGE_CURVE ( 'NONE', #116, #252, #127, .T. ) ;
#129 = FACE_BOUND ( 'NONE', #112, .T. ) ;
#130 = LOCAL_TIME ( 12, 30, 47.00000000000000000, #120 ) ;
#131 = APPROVAL ( #235, 'NEURÈENÝ' ) ;
#132 = VECTOR ( 'NONE', #10, 1000.000000000000000 ) ;
#133 = ORIENTED_EDGE ( 'NONE', *, *, #65, .F. ) ;
#134 = CC_DESIGN_PERSON_AND_ORGANIZATION_ASSIGNMENT ( #240, #203, ( #205 ) ) ;
#135 = VECTOR ( 'NONE', #71, 1000.000000000000000 ) ;
#136 = AXIS2_PLACEMENT_3D ( 'NONE', #202, #250, #218 ) ;
#137 = APPROVAL_STATUS ( 'not_yet_approved' ) ;
#138 = ORIENTED_EDGE ( 'NONE', *, *, #149, .T. ) ;
#139 = ORIENTED_EDGE ( 'NONE', *, *, #24, .F. ) ;
#140 = EDGE_CURVE ( 'NONE', #210, #252, #175, .T. ) ;
#141 = CARTESIAN_POINT ( 'NONE',  ( 6.000000000000000888, 7.347880794884120722E-16, 5.000000000000000000 ) ) ;
#142 = CARTESIAN_POINT ( 'NONE',  ( 3.250000000000000444, 3.980102097228898231E-16, 315.0000000000000000 ) ) ;
#143 = LINE ( 'NONE', #142, #249 ) ;
#144 = CC_DESIGN_APPROVAL ( #131, ( #147 ) ) ;
#145 = ADVANCED_FACE ( 'NONE', ( #163 ), #241, .T. ) ;
#146 = ORIENTED_EDGE ( 'NONE', *, *, #84, .T. ) ;
#147 = PRODUCT_DEFINITION_FORMATION_WITH_SPECIFIED_SOURCE ( 'LIBOVOLNÝ', '', #8, .NOT_KNOWN. ) ;
#148 = APPROVAL_DATE_TIME ( #94, #225 ) ;
#149 = EDGE_CURVE ( 'NONE', #252, #210, #126, .T. ) ;
#150 = VERTEX_POINT ( 'NONE', #239 ) ;
#151 = APPROVAL_STATUS ( 'not_yet_approved' ) ;
#152 = ORIENTED_EDGE ( 'NONE', *, *, #84, .F. ) ;
#153 = VERTEX_POINT ( 'NONE', #66 ) ;
#154 = ORIENTED_EDGE ( 'NONE', *, *, #65, .T. ) ;
#155 = CARTESIAN_POINT ( 'NONE',  ( 0.000000000000000000, 0.000000000000000000, 5.000000000000000000 ) ) ;
#156 = AXIS2_PLACEMENT_3D ( 'NONE', #21, #174, #54 ) ;
#157 = COORDINATED_UNIVERSAL_TIME_OFFSET ( 1, 0, .AHEAD. ) ;
#158 = DIRECTION ( 'NONE',  ( 1.000000000000000000, 0.000000000000000000, 0.000000000000000000 ) ) ;
#159 = FACE_OUTER_BOUND ( 'NONE', #200, .T. ) ;
#160 = ADVANCED_FACE ( 'NONE', ( #129, #88 ), #109, .T. ) ;
#161 = APPROVAL_PERSON_ORGANIZATION ( #37, #47, #187 ) ;
#162 = ORIENTED_EDGE ( 'NONE', *, *, #190, .F. ) ;
#163 = FACE_OUTER_BOUND ( 'NONE', #67, .T. ) ;
#164 = FACE_OUTER_BOUND ( 'NONE', #236, .T. ) ;
#165 = CIRCLE ( 'NONE', #22, 6.000000000000000888 ) ;
#166 = LINE ( 'NONE', #243, #135 ) ;
#167 = ORIENTED_EDGE ( 'NONE', *, *, #118, .F. ) ;
#168 = DIRECTION ( 'NONE',  ( 1.000000000000000000, 0.000000000000000000, 0.000000000000000000 ) ) ;
#169 = ORIENTED_EDGE ( 'NONE', *, *, #128, .T. ) ;
#170 = EDGE_CURVE ( 'NONE', #150, #210, #143, .T. ) ;
#171 = AXIS2_PLACEMENT_3D ( 'NONE', #77, #211, #234 ) ;
#172 = PERSON_AND_ORGANIZATION_ROLE ( 'design_owner' ) ;
#173 = DIRECTION ( 'NONE',  ( 0.000000000000000000, 0.000000000000000000, 1.000000000000000000 ) ) ;
#174 = DIRECTION ( 'NONE',  ( 0.000000000000000000, 0.000000000000000000, 1.000000000000000000 ) ) ;
#175 = CIRCLE ( 'NONE', #226, 3.250000000000000444 ) ;
#176 = CC_DESIGN_PERSON_AND_ORGANIZATION_ASSIGNMENT ( #124, #27, ( #147 ) ) ;
#177 = DIRECTION ( 'NONE',  ( 0.000000000000000000, 0.000000000000000000, 1.000000000000000000 ) ) ;
#178 = DIRECTION ( 'NONE',  ( 0.000000000000000000, 0.000000000000000000, 1.000000000000000000 ) ) ;
#179 = AXIS2_PLACEMENT_3D ( 'NONE', #46, #92, #45 ) ;
#180 = DIRECTION ( 'NONE',  ( 0.000000000000000000, 0.000000000000000000, 1.000000000000000000 ) ) ;
#181 = CIRCLE ( 'NONE', #156, 3.250000000000000444 ) ;
#182 = EDGE_LOOP ( 'NONE', ( #51, #154 ) ) ;
#183 = DIRECTION ( 'NONE',  ( -1.000000000000000000, 0.000000000000000000, 0.000000000000000000 ) ) ;
#184 = CARTESIAN_POINT ( 'NONE',  ( 0.000000000000000000, 0.000000000000000000, 0.000000000000000000 ) ) ;
#185 =( GEOMETRIC_REPRESENTATION_CONTEXT ( 3 ) GLOBAL_UNCERTAINTY_ASSIGNED_CONTEXT ( ( #28 ) ) GLOBAL_UNIT_ASSIGNED_CONTEXT ( ( #251, #191, #113 ) ) REPRESENTATION_CONTEXT ( 'NONE', 'WORKASPACE' ) );
#186 = EDGE_CURVE ( 'NONE', #74, #204, #165, .T. ) ;
#187 = APPROVAL_ROLE ( '' ) ;
#188 = APPROVAL_ROLE ( '' ) ;
#189 = ORGANIZATION ( 'NEURÈENÝ', 'NEURÈENÝ', '' ) ;
#190 = EDGE_CURVE ( 'NONE', #74, #254, #125, .T. ) ;
#191 =( NAMED_UNIT ( * ) PLANE_ANGLE_UNIT ( ) SI_UNIT ( $, .RADIAN. ) );
#192 = AXIS2_PLACEMENT_3D ( 'NONE', #82, #62, #85 ) ;
#193 = DATE_TIME_ROLE ( 'creation_date' ) ;
#194 = CARTESIAN_POINT ( 'NONE',  ( -6.000000000000000888, 0.000000000000000000, 0.000000000000000000 ) ) ;
#195 = CYLINDRICAL_SURFACE ( 'NONE', #52, 6.000000000000000888 ) ;
#196 = AXIS2_PLACEMENT_3D ( 'NONE', #247, #35, #183 ) ;
#197 = CARTESIAN_POINT ( 'NONE',  ( 0.000000000000000000, 0.000000000000000000, 5.000000000000000000 ) ) ;
#198 = DIRECTION ( 'NONE',  ( 1.000000000000000000, 0.000000000000000000, 0.000000000000000000 ) ) ;
#199 = DIRECTION ( 'NONE',  ( 0.000000000000000000, 0.000000000000000000, 1.000000000000000000 ) ) ;
#200 = EDGE_LOOP ( 'NONE', ( #167, #36, #38, #146 ) ) ;
#201 = CARTESIAN_POINT ( 'NONE',  ( -3.250000000000000444, 0.000000000000000000, 315.0000000000000000 ) ) ;
#202 = CARTESIAN_POINT ( 'NONE',  ( 0.000000000000000000, 0.000000000000000000, 315.0000000000000000 ) ) ;
#203 = PERSON_AND_ORGANIZATION_ROLE ( 'classification_officer' ) ;
#204 = VERTEX_POINT ( 'NONE', #141 ) ;
#205 = SECURITY_CLASSIFICATION ( '', '', #83 ) ;
#206 = ADVANCED_FACE ( 'NONE', ( #159 ), #195, .T. ) ;
#207 = APPROVAL_DATE_TIME ( #16, #47 ) ;
#208 = MANIFOLD_SOLID_BREP ( 'Pøidat vysunutím3', #18 ) ;
#209 = COORDINATED_UNIVERSAL_TIME_OFFSET ( 1, 0, .AHEAD. ) ;
#210 = VERTEX_POINT ( 'NONE', #23 ) ;
#211 = DIRECTION ( 'NONE',  ( 0.000000000000000000, 0.000000000000000000, 1.000000000000000000 ) ) ;
#212 = CC_DESIGN_SECURITY_CLASSIFICATION ( #205, ( #147 ) ) ;
#213 = APPROVAL_ROLE ( '' ) ;
#214 = ORIENTED_EDGE ( 'NONE', *, *, #140, .F. ) ;
#215 = CARTESIAN_POINT ( 'NONE',  ( 0.000000000000000000, 0.000000000000000000, 315.0000000000000000 ) ) ;
#216 = CC_DESIGN_APPROVAL ( #47, ( #68 ) ) ;
#217 = CYLINDRICAL_SURFACE ( 'NONE', #136, 3.250000000000000444 ) ;
#218 = DIRECTION ( 'NONE',  ( -1.000000000000000000, 0.000000000000000000, 0.000000000000000000 ) ) ;
#219 = ADVANCED_FACE ( 'NONE', ( #79 ), #57, .F. ) ;
#220 = CIRCLE ( 'NONE', #171, 6.000000000000000888 ) ;
#221 = APPLICATION_PROTOCOL_DEFINITION ( 'international standard', 'config_control_design', 1994, #230 ) ;
#222 = LOCAL_TIME ( 12, 30, 47.00000000000000000, #209 ) ;
#223 = ORIENTED_EDGE ( 'NONE', *, *, #170, .F. ) ;
#224 = CALENDAR_DATE ( 2023, 12, 2 ) ;
#225 = APPROVAL ( #137, 'NEURÈENÝ' ) ;
#226 = AXIS2_PLACEMENT_3D ( 'NONE', #155, #101, #198 ) ;
#227 = DATE_TIME_ROLE ( 'classification_date' ) ;
#228 = EDGE_LOOP ( 'NONE', ( #152, #53 ) ) ;
#229 = MECHANICAL_CONTEXT ( 'NONE', #7, 'mechanical' ) ;
#230 = APPLICATION_CONTEXT ( 'configuration controlled 3d designs of mechanical parts and assemblies' ) ;
#231 = DIRECTION ( 'NONE',  ( 1.000000000000000000, 0.000000000000000000, 0.000000000000000000 ) ) ;
#232 = CALENDAR_DATE ( 2023, 12, 2 ) ;
#233 = ADVANCED_FACE ( 'NONE', ( #43 ), #107, .T. ) ;
#234 = DIRECTION ( 'NONE',  ( 1.000000000000000000, 0.000000000000000000, 0.000000000000000000 ) ) ;
#235 = APPROVAL_STATUS ( 'not_yet_approved' ) ;
#236 = EDGE_LOOP ( 'NONE', ( #20, #12, #63, #50 ) ) ;
#237 = LOCAL_TIME ( 12, 30, 47.00000000000000000, #114 ) ;
#238 = CALENDAR_DATE ( 2023, 12, 2 ) ;
#239 = CARTESIAN_POINT ( 'NONE',  ( 3.250000000000000444, 3.980102097228898231E-16, 315.0000000000000000 ) ) ;
#240 = PERSON_AND_ORGANIZATION ( #70, #189 ) ;
#241 = CYLINDRICAL_SURFACE ( 'NONE', #192, 6.000000000000000888 ) ;
#242 = DIRECTION ( 'NONE',  ( -0.000000000000000000, -0.000000000000000000, -1.000000000000000000 ) ) ;
#243 = CARTESIAN_POINT ( 'NONE',  ( 6.000000000000000888, 7.347880794884120722E-16, 5.000000000000000000 ) ) ;
#244 = AXIS2_PLACEMENT_3D ( 'NONE', #104, #177, #86 ) ;
#245 = DIRECTION ( 'NONE',  ( 0.000000000000000000, 0.000000000000000000, 1.000000000000000000 ) ) ;
#246 = CARTESIAN_POINT ( 'NONE',  ( -6.000000000000000888, 0.000000000000000000, 5.000000000000000000 ) ) ;
#247 = CARTESIAN_POINT ( 'NONE',  ( 0.000000000000000000, 0.000000000000000000, 315.0000000000000000 ) ) ;
#248 = CIRCLE ( 'NONE', #179, 6.000000000000000888 ) ;
#249 = VECTOR ( 'NONE', #25, 1000.000000000000000 ) ;
#250 = DIRECTION ( 'NONE',  ( -0.000000000000000000, -0.000000000000000000, -1.000000000000000000 ) ) ;
#251 =( LENGTH_UNIT ( ) NAMED_UNIT ( * ) SI_UNIT ( .MILLI., .METRE. ) );
#252 = VERTEX_POINT ( 'NONE', #121 ) ;
#253 = PERSON_AND_ORGANIZATION ( #70, #189 ) ;
#254 = VERTEX_POINT ( 'NONE', #194 ) ;
#255 = PERSON_AND_ORGANIZATION_ROLE ( 'creator' ) ;
ENDSEC;
END-ISO-10303-21;
