ISO-10303-21;
HEADER;
FILE_DESCRIPTION (( 'STEP AP203' ),
    '1' );
FILE_NAME ('5391.STEP',
    '2023-02-12T11:08:47',
    ( '' ),
    ( '' ),
    'SwSTEP 2.0',
    'SolidWorks 2019',
    '' );
FILE_SCHEMA (( 'CONFIG_CONTROL_DESIGN' ));
ENDSEC;

DATA;
#1 = CYLINDRICAL_SURFACE ( 'NONE', #70, 4.500000000000000000 ) ;
#2 = CC_DESIGN_DATE_AND_TIME_ASSIGNMENT ( #58, #239, ( #229 ) ) ;
#3 = AXIS2_PLACEMENT_3D ( 'NONE', #124, #108, #223 ) ;
#4 = DIRECTION ( 'NONE',  ( 0.000000000000000000, 0.000000000000000000, 1.000000000000000000 ) ) ;
#5 = CARTESIAN_POINT ( 'NONE',  ( 4.500000000000000000, 5.510910596163088569E-16, 5.000000000000000000 ) ) ;
#6 = CALENDAR_DATE ( 2023, 12, 2 ) ;
#7 = ADVANCED_FACE ( 'NONE', ( #36 ), #242, .T. ) ;
#8 = APPROVAL_ROLE ( '' ) ;
#9 = PERSON_AND_ORGANIZATION ( #139, #43 ) ;
#10 = CC_DESIGN_APPROVAL ( #88, ( #229 ) ) ;
#11 = LINE ( 'NONE', #207, #164 ) ;
#12 = EDGE_CURVE ( 'NONE', #74, #141, #145, .T. ) ;
#13 = EDGE_LOOP ( 'NONE', ( #72, #30 ) ) ;
#14 = ORIENTED_EDGE ( 'NONE', *, *, #245, .T. ) ;
#15 = ADVANCED_FACE ( 'NONE', ( #56 ), #1, .T. ) ;
#16 = AXIS2_PLACEMENT_3D ( 'NONE', #240, #234, #177 ) ;
#17 = CIRCLE ( 'NONE', #144, 7.000000000000000000 ) ;
#18 = DIRECTION ( 'NONE',  ( 1.000000000000000000, 0.000000000000000000, 0.000000000000000000 ) ) ;
#19 = EDGE_CURVE ( 'NONE', #141, #252, #114, .T. ) ;
#20 = DIRECTION ( 'NONE',  ( 1.000000000000000000, 0.000000000000000000, -0.000000000000000000 ) ) ;
#21 = FACE_OUTER_BOUND ( 'NONE', #208, .T. ) ;
#22 = EDGE_LOOP ( 'NONE', ( #157, #173 ) ) ;
#23 = COORDINATED_UNIVERSAL_TIME_OFFSET ( 1, 0, .AHEAD. ) ;
#24 = CARTESIAN_POINT ( 'NONE',  ( -4.500000000000000000, 0.000000000000000000, 5.000000000000000000 ) ) ;
#25 = EDGE_CURVE ( 'NONE', #252, #141, #253, .T. ) ;
#26 = PERSON_AND_ORGANIZATION ( #139, #43 ) ;
#27 = FACE_OUTER_BOUND ( 'NONE', #250, .T. ) ;
#28 = ADVANCED_FACE ( 'NONE', ( #185 ), #168, .T. ) ;
#29 = VERTEX_POINT ( 'NONE', #100 ) ;
#30 = ORIENTED_EDGE ( 'NONE', *, *, #189, .T. ) ;
#31 = APPROVAL ( #147, 'NEURÈENÝ' ) ;
#32 = ORIENTED_EDGE ( 'NONE', *, *, #111, .T. ) ;
#33 = CC_DESIGN_APPROVAL ( #31, ( #102 ) ) ;
#34 = DIRECTION ( 'NONE',  ( 1.000000000000000000, 0.000000000000000000, -0.000000000000000000 ) ) ;
#35 = ADVANCED_FACE ( 'NONE', ( #82 ), #183, .F. ) ;
#36 = FACE_OUTER_BOUND ( 'NONE', #117, .T. ) ;
#37 = CARTESIAN_POINT ( 'NONE',  ( 0.000000000000000000, 0.000000000000000000, 200.0000000000000000 ) ) ;
#38 = DATE_AND_TIME ( #150, #67 ) ;
#39 = CARTESIAN_POINT ( 'NONE',  ( 0.000000000000000000, 0.000000000000000000, 0.000000000000000000 ) ) ;
#40 = APPLICATION_CONTEXT ( 'configuration controlled 3d designs of mechanical parts and assemblies' ) ;
#41 = CARTESIAN_POINT ( 'NONE',  ( 0.000000000000000000, 0.000000000000000000, 200.0000000000000000 ) ) ;
#42 = DIRECTION ( 'NONE',  ( 0.000000000000000000, 0.000000000000000000, 1.000000000000000000 ) ) ;
#43 = ORGANIZATION ( 'NEURÈENÝ', 'NEURÈENÝ', '' ) ;
#44 = CC_DESIGN_PERSON_AND_ORGANIZATION_ASSIGNMENT ( #129, #109, ( #140 ) ) ;
#45 = CARTESIAN_POINT ( 'NONE',  ( 7.000000000000000000, 8.572527594031473190E-16, 5.000000000000000000 ) ) ;
#46 = DIRECTION ( 'NONE',  ( 0.000000000000000000, 0.000000000000000000, 1.000000000000000000 ) ) ;
#47 = APPROVAL_PERSON_ORGANIZATION ( #241, #81, #63 ) ;
#48 = ORIENTED_EDGE ( 'NONE', *, *, #189, .F. ) ;
#49 = ADVANCED_FACE ( 'NONE', ( #181 ), #166, .T. ) ;
#50 = EDGE_LOOP ( 'NONE', ( #71, #14, #93, #115 ) ) ;
#51 = CC_DESIGN_PERSON_AND_ORGANIZATION_ASSIGNMENT ( #169, #123, ( #102 ) ) ;
#52 = ORIENTED_EDGE ( 'NONE', *, *, #19, .T. ) ;
#53 = CARTESIAN_POINT ( 'NONE',  ( 0.000000000000000000, 0.000000000000000000, 5.000000000000000000 ) ) ;
#54 = CIRCLE ( 'NONE', #235, 4.500000000000000000 ) ;
#55 = APPROVAL_STATUS ( 'not_yet_approved' ) ;
#56 = FACE_OUTER_BOUND ( 'NONE', #176, .T. ) ;
#57 = MANIFOLD_SOLID_BREP ( 'Pøidat vysunutím3', #230 ) ;
#58 = DATE_AND_TIME ( #182, #161 ) ;
#59 = DIRECTION ( 'NONE',  ( -0.000000000000000000, -0.000000000000000000, -1.000000000000000000 ) ) ;
#60 = APPROVAL_ROLE ( '' ) ;
#61 = CARTESIAN_POINT ( 'NONE',  ( 0.000000000000000000, 0.000000000000000000, 0.000000000000000000 ) ) ;
#62 = ORIENTED_EDGE ( 'NONE', *, *, #25, .F. ) ;
#63 = APPROVAL_ROLE ( '' ) ;
#64 = CARTESIAN_POINT ( 'NONE',  ( 0.000000000000000000, 0.000000000000000000, 0.000000000000000000 ) ) ;
#65 = COORDINATED_UNIVERSAL_TIME_OFFSET ( 1, 0, .AHEAD. ) ;
#66 = EDGE_CURVE ( 'NONE', #210, #162, #136, .T. ) ;
#67 = LOCAL_TIME ( 12, 8, 47.00000000000000000, #103 ) ;
#68 = DIRECTION ( 'NONE',  ( -1.000000000000000000, 0.000000000000000000, 0.000000000000000000 ) ) ;
#69 = AXIS2_PLACEMENT_3D ( 'NONE', #249, #247, #87 ) ;
#70 = AXIS2_PLACEMENT_3D ( 'NONE', #37, #78, #218 ) ;
#71 = ORIENTED_EDGE ( 'NONE', *, *, #178, .F. ) ;
#72 = ORIENTED_EDGE ( 'NONE', *, *, #214, .T. ) ;
#73 = CC_DESIGN_SECURITY_CLASSIFICATION ( #140, ( #102 ) ) ;
#74 = VERTEX_POINT ( 'NONE', #148 ) ;
#75 = FACE_BOUND ( 'NONE', #232, .T. ) ;
#76 = SHAPE_DEFINITION_REPRESENTATION ( #94, #171 ) ;
#77 = EDGE_CURVE ( 'NONE', #29, #210, #213, .T. ) ;
#78 = DIRECTION ( 'NONE',  ( -0.000000000000000000, -0.000000000000000000, -1.000000000000000000 ) ) ;
#79 = ORIENTED_EDGE ( 'NONE', *, *, #19, .F. ) ;
#80 = DIRECTION ( 'NONE',  ( -0.000000000000000000, -0.000000000000000000, -1.000000000000000000 ) ) ;
#81 = APPROVAL ( #55, 'NEURÈENÝ' ) ;
#82 = FACE_OUTER_BOUND ( 'NONE', #22, .T. ) ;
#83 = CIRCLE ( 'NONE', #198, 7.000000000000000000 ) ;
#84 = PERSON_AND_ORGANIZATION ( #139, #43 ) ;
#85 = CARTESIAN_POINT ( 'NONE',  ( 0.000000000000000000, 0.000000000000000000, 200.0000000000000000 ) ) ;
#86 = UNCERTAINTY_MEASURE_WITH_UNIT (LENGTH_MEASURE( 1.000000000000000082E-05 ), #244, 'distance_accuracy_value', 'NONE');
#87 = DIRECTION ( 'NONE',  ( 1.000000000000000000, 0.000000000000000000, 0.000000000000000000 ) ) ;
#88 = APPROVAL ( #89, 'NEURÈENÝ' ) ;
#89 = APPROVAL_STATUS ( 'not_yet_approved' ) ;
#90 = AXIS2_PLACEMENT_3D ( 'NONE', #227, #206, #68 ) ;
#91 = CARTESIAN_POINT ( 'NONE',  ( 0.000000000000000000, 0.000000000000000000, 5.000000000000000000 ) ) ;
#92 = LOCAL_TIME ( 12, 8, 47.00000000000000000, #23 ) ;
#93 = ORIENTED_EDGE ( 'NONE', *, *, #160, .T. ) ;
#94 = PRODUCT_DEFINITION_SHAPE ( 'NONE', 'NONE',  #229 ) ;
#95 = CC_DESIGN_PERSON_AND_ORGANIZATION_ASSIGNMENT ( #216, #243, ( #229 ) ) ;
#96 = VERTEX_POINT ( 'NONE', #146 ) ;
#97 = DIRECTION ( 'NONE',  ( -1.000000000000000000, 0.000000000000000000, 0.000000000000000000 ) ) ;
#98 = CARTESIAN_POINT ( 'NONE',  ( 7.000000000000000000, 8.572527594031473190E-16, 0.000000000000000000 ) ) ;
#99 = APPROVAL_DATE_TIME ( #38, #81 ) ;
#100 = CARTESIAN_POINT ( 'NONE',  ( -7.000000000000000000, 0.000000000000000000, 5.000000000000000000 ) ) ;
#101 = AXIS2_PLACEMENT_3D ( 'NONE', #64, #42, #130 ) ;
#102 = PRODUCT_DEFINITION_FORMATION_WITH_SPECIFIED_SOURCE ( 'LIBOVOLNÝ', '', #135, .NOT_KNOWN. ) ;
#103 = COORDINATED_UNIVERSAL_TIME_OFFSET ( 1, 0, .AHEAD. ) ;
#104 = DIRECTION ( 'NONE',  ( 0.000000000000000000, 0.000000000000000000, 1.000000000000000000 ) ) ;
#105 = CC_DESIGN_PERSON_AND_ORGANIZATION_ASSIGNMENT ( #84, #127, ( #102 ) ) ;
#106 = AXIS2_PLACEMENT_3D ( 'NONE', #53, #104, #34 ) ;
#107 = DATE_AND_TIME ( #6, #92 ) ;
#108 = DIRECTION ( 'NONE',  ( 0.000000000000000000, 0.000000000000000000, 1.000000000000000000 ) ) ;
#109 = PERSON_AND_ORGANIZATION_ROLE ( 'classification_officer' ) ;
#110 = APPLICATION_PROTOCOL_DEFINITION ( 'international standard', 'config_control_design', 1994, #248 ) ;
#111 = EDGE_CURVE ( 'NONE', #96, #252, #254, .T. ) ;
#112 = MECHANICAL_CONTEXT ( 'NONE', #40, 'mechanical' ) ;
#113 =( NAMED_UNIT ( * ) SI_UNIT ( $, .STERADIAN. ) SOLID_ANGLE_UNIT ( ) );
#114 = CIRCLE ( 'NONE', #118, 4.500000000000000000 ) ;
#115 = ORIENTED_EDGE ( 'NONE', *, *, #77, .F. ) ;
#116 = ADVANCED_FACE ( 'NONE', ( #75, #21 ), #143, .T. ) ;
#117 = EDGE_LOOP ( 'NONE', ( #251, #170, #212, #195 ) ) ;
#118 = AXIS2_PLACEMENT_3D ( 'NONE', #163, #199, #200 ) ;
#119 = ORIENTED_EDGE ( 'NONE', *, *, #214, .F. ) ;
#120 = DIRECTION ( 'NONE',  ( 1.000000000000000000, 0.000000000000000000, 0.000000000000000000 ) ) ;
#121 = AXIS2_PLACEMENT_3D ( 'NONE', #197, #149, #196 ) ;
#122 = DIRECTION ( 'NONE',  ( 0.000000000000000000, 0.000000000000000000, 1.000000000000000000 ) ) ;
#123 = PERSON_AND_ORGANIZATION_ROLE ( 'design_supplier' ) ;
#124 = CARTESIAN_POINT ( 'NONE',  ( 0.000000000000000000, 0.000000000000000000, 5.000000000000000000 ) ) ;
#125 =( GEOMETRIC_REPRESENTATION_CONTEXT ( 3 ) GLOBAL_UNCERTAINTY_ASSIGNED_CONTEXT ( ( #86 ) ) GLOBAL_UNIT_ASSIGNED_CONTEXT ( ( #244, #226, #113 ) ) REPRESENTATION_CONTEXT ( 'NONE', 'WORKASPACE' ) );
#126 = DIRECTION ( 'NONE',  ( 0.000000000000000000, 0.000000000000000000, 1.000000000000000000 ) ) ;
#127 = PERSON_AND_ORGANIZATION_ROLE ( 'creator' ) ;
#128 = DIRECTION ( 'NONE',  ( 0.000000000000000000, 0.000000000000000000, 1.000000000000000000 ) ) ;
#129 = PERSON_AND_ORGANIZATION ( #139, #43 ) ;
#130 = DIRECTION ( 'NONE',  ( 1.000000000000000000, 0.000000000000000000, 0.000000000000000000 ) ) ;
#131 = CC_DESIGN_APPROVAL ( #81, ( #140 ) ) ;
#132 = DATE_AND_TIME ( #151, #180 ) ;
#133 = DIRECTION ( 'NONE',  ( 1.000000000000000000, 0.000000000000000000, 0.000000000000000000 ) ) ;
#134 = CC_DESIGN_DATE_AND_TIME_ASSIGNMENT ( #107, #203, ( #140 ) ) ;
#135 = PRODUCT ( '5391', '5391', '', ( #112 ) ) ;
#136 = CIRCLE ( 'NONE', #16, 7.000000000000000000 ) ;
#137 = ORIENTED_EDGE ( 'NONE', *, *, #12, .T. ) ;
#138 = VECTOR ( 'NONE', #59, 1000.000000000000000 ) ;
#139 = PERSON ( 'NEURÈENÝ', 'NEURÈENÝ', 'NEURÈENÝ', ('NEURÈENÝ'), ('NEURÈENÝ'), ('NEURÈENÝ') ) ;
#140 = SECURITY_CLASSIFICATION ( '', '', #221 ) ;
#141 = VERTEX_POINT ( 'NONE', #5 ) ;
#142 = ORIENTED_EDGE ( 'NONE', *, *, #12, .F. ) ;
#143 = PLANE ( 'NONE',  #106 ) ;
#144 = AXIS2_PLACEMENT_3D ( 'NONE', #165, #4, #120 ) ;
#145 = LINE ( 'NONE', #236, #228 ) ;
#146 = CARTESIAN_POINT ( 'NONE',  ( -4.500000000000000000, 0.000000000000000000, 200.0000000000000000 ) ) ;
#147 = APPROVAL_STATUS ( 'not_yet_approved' ) ;
#148 = CARTESIAN_POINT ( 'NONE',  ( 4.500000000000000000, 5.510910596163088569E-16, 200.0000000000000000 ) ) ;
#149 = DIRECTION ( 'NONE',  ( -0.000000000000000000, -0.000000000000000000, -1.000000000000000000 ) ) ;
#150 = CALENDAR_DATE ( 2023, 12, 2 ) ;
#151 = CALENDAR_DATE ( 2023, 12, 2 ) ;
#152 = CIRCLE ( 'NONE', #69, 4.500000000000000000 ) ;
#153 = DIRECTION ( 'NONE',  ( 0.000000000000000000, 0.000000000000000000, 1.000000000000000000 ) ) ;
#154 = EDGE_CURVE ( 'NONE', #29, #194, #17, .T. ) ;
#155 = DIRECTION ( 'NONE',  ( -0.000000000000000000, -0.000000000000000000, -1.000000000000000000 ) ) ;
#156 = APPROVAL_PERSON_ORGANIZATION ( #9, #88, #8 ) ;
#157 = ORIENTED_EDGE ( 'NONE', *, *, #66, .F. ) ;
#158 = AXIS2_PLACEMENT_3D ( 'NONE', #41, #122, #20 ) ;
#159 = ORIENTED_EDGE ( 'NONE', *, *, #25, .T. ) ;
#160 = EDGE_CURVE ( 'NONE', #162, #210, #83, .T. ) ;
#161 = LOCAL_TIME ( 12, 8, 47.00000000000000000, #219 ) ;
#162 = VERTEX_POINT ( 'NONE', #98 ) ;
#163 = CARTESIAN_POINT ( 'NONE',  ( 0.000000000000000000, 0.000000000000000000, 5.000000000000000000 ) ) ;
#164 = VECTOR ( 'NONE', #155, 1000.000000000000000 ) ;
#165 = CARTESIAN_POINT ( 'NONE',  ( 0.000000000000000000, 0.000000000000000000, 5.000000000000000000 ) ) ;
#166 = CYLINDRICAL_SURFACE ( 'NONE', #167, 7.000000000000000000 ) ;
#167 = AXIS2_PLACEMENT_3D ( 'NONE', #179, #238, #97 ) ;
#168 = PLANE ( 'NONE',  #158 ) ;
#169 = PERSON_AND_ORGANIZATION ( #139, #43 ) ;
#170 = ORIENTED_EDGE ( 'NONE', *, *, #154, .F. ) ;
#171 = ADVANCED_BREP_SHAPE_REPRESENTATION ( '5391', ( #57, #101 ), #125 ) ;
#172 = CYLINDRICAL_SURFACE ( 'NONE', #90, 4.500000000000000000 ) ;
#173 = ORIENTED_EDGE ( 'NONE', *, *, #160, .F. ) ;
#174 = AXIS2_PLACEMENT_3D ( 'NONE', #91, #153, #133 ) ;
#175 = CC_DESIGN_PERSON_AND_ORGANIZATION_ASSIGNMENT ( #26, #190, ( #135 ) ) ;
#176 = EDGE_LOOP ( 'NONE', ( #142, #119, #32, #159 ) ) ;
#177 = DIRECTION ( 'NONE',  ( 1.000000000000000000, 0.000000000000000000, 0.000000000000000000 ) ) ;
#178 = EDGE_CURVE ( 'NONE', #194, #29, #193, .T. ) ;
#179 = CARTESIAN_POINT ( 'NONE',  ( 0.000000000000000000, 0.000000000000000000, 5.000000000000000000 ) ) ;
#180 = LOCAL_TIME ( 12, 8, 47.00000000000000000, #65 ) ;
#181 = FACE_OUTER_BOUND ( 'NONE', #50, .T. ) ;
#182 = CALENDAR_DATE ( 2023, 12, 2 ) ;
#183 = PLANE ( 'NONE',  #217 ) ;
#184 = DATE_AND_TIME ( #224, #246 ) ;
#185 = FACE_OUTER_BOUND ( 'NONE', #13, .T. ) ;
#186 = ADVANCED_FACE ( 'NONE', ( #27 ), #172, .T. ) ;
#187 = APPROVAL_DATE_TIME ( #184, #31 ) ;
#188 = DIRECTION ( 'NONE',  ( 1.000000000000000000, 0.000000000000000000, 0.000000000000000000 ) ) ;
#189 = EDGE_CURVE ( 'NONE', #74, #96, #152, .T. ) ;
#190 = PERSON_AND_ORGANIZATION_ROLE ( 'design_owner' ) ;
#191 = APPROVAL_PERSON_ORGANIZATION ( #237, #31, #60 ) ;
#192 = ORIENTED_EDGE ( 'NONE', *, *, #178, .T. ) ;
#193 = CIRCLE ( 'NONE', #174, 7.000000000000000000 ) ;
#194 = VERTEX_POINT ( 'NONE', #45 ) ;
#195 = ORIENTED_EDGE ( 'NONE', *, *, #66, .T. ) ;
#196 = DIRECTION ( 'NONE',  ( -1.000000000000000000, 0.000000000000000000, 0.000000000000000000 ) ) ;
#197 = CARTESIAN_POINT ( 'NONE',  ( 0.000000000000000000, 0.000000000000000000, 5.000000000000000000 ) ) ;
#198 = AXIS2_PLACEMENT_3D ( 'NONE', #39, #126, #18 ) ;
#199 = DIRECTION ( 'NONE',  ( 0.000000000000000000, 0.000000000000000000, 1.000000000000000000 ) ) ;
#200 = DIRECTION ( 'NONE',  ( 1.000000000000000000, 0.000000000000000000, 0.000000000000000000 ) ) ;
#201 = COORDINATED_UNIVERSAL_TIME_OFFSET ( 1, 0, .AHEAD. ) ;
#202 = DIRECTION ( 'NONE',  ( 1.000000000000000000, 0.000000000000000000, -0.000000000000000000 ) ) ;
#203 = DATE_TIME_ROLE ( 'classification_date' ) ;
#204 = APPLICATION_PROTOCOL_DEFINITION ( 'international standard', 'config_control_design', 1994, #40 ) ;
#205 = APPROVAL_DATE_TIME ( #132, #88 ) ;
#206 = DIRECTION ( 'NONE',  ( -0.000000000000000000, -0.000000000000000000, -1.000000000000000000 ) ) ;
#207 = CARTESIAN_POINT ( 'NONE',  ( 7.000000000000000000, 8.572527594031473190E-16, 5.000000000000000000 ) ) ;
#208 = EDGE_LOOP ( 'NONE', ( #209, #192 ) ) ;
#209 = ORIENTED_EDGE ( 'NONE', *, *, #154, .T. ) ;
#210 = VERTEX_POINT ( 'NONE', #225 ) ;
#211 = VECTOR ( 'NONE', #220, 1000.000000000000000 ) ;
#212 = ORIENTED_EDGE ( 'NONE', *, *, #77, .T. ) ;
#213 = LINE ( 'NONE', #222, #138 ) ;
#214 = EDGE_CURVE ( 'NONE', #96, #74, #54, .T. ) ;
#215 = DESIGN_CONTEXT ( 'detailed design', #248, 'design' ) ;
#216 = PERSON_AND_ORGANIZATION ( #139, #43 ) ;
#217 = AXIS2_PLACEMENT_3D ( 'NONE', #61, #128, #202 ) ;
#218 = DIRECTION ( 'NONE',  ( -1.000000000000000000, 0.000000000000000000, 0.000000000000000000 ) ) ;
#219 = COORDINATED_UNIVERSAL_TIME_OFFSET ( 1, 0, .AHEAD. ) ;
#220 = DIRECTION ( 'NONE',  ( -0.000000000000000000, -0.000000000000000000, -1.000000000000000000 ) ) ;
#221 = SECURITY_CLASSIFICATION_LEVEL ( 'unclassified' ) ;
#222 = CARTESIAN_POINT ( 'NONE',  ( -7.000000000000000000, 0.000000000000000000, 5.000000000000000000 ) ) ;
#223 = DIRECTION ( 'NONE',  ( 1.000000000000000000, 0.000000000000000000, 0.000000000000000000 ) ) ;
#224 = CALENDAR_DATE ( 2023, 12, 2 ) ;
#225 = CARTESIAN_POINT ( 'NONE',  ( -7.000000000000000000, 0.000000000000000000, 0.000000000000000000 ) ) ;
#226 =( NAMED_UNIT ( * ) PLANE_ANGLE_UNIT ( ) SI_UNIT ( $, .RADIAN. ) );
#227 = CARTESIAN_POINT ( 'NONE',  ( 0.000000000000000000, 0.000000000000000000, 200.0000000000000000 ) ) ;
#228 = VECTOR ( 'NONE', #80, 1000.000000000000000 ) ;
#229 = PRODUCT_DEFINITION ( 'NEZNÁMÝ', '', #102, #215 ) ;
#230 = CLOSED_SHELL ( 'NONE', ( #186, #49, #7, #116, #35, #15, #28 ) ) ;
#231 = ORIENTED_EDGE ( 'NONE', *, *, #111, .F. ) ;
#232 = EDGE_LOOP ( 'NONE', ( #62, #79 ) ) ;
#233 = PRODUCT_RELATED_PRODUCT_CATEGORY ( 'detail', '', ( #135 ) ) ;
#234 = DIRECTION ( 'NONE',  ( 0.000000000000000000, 0.000000000000000000, 1.000000000000000000 ) ) ;
#235 = AXIS2_PLACEMENT_3D ( 'NONE', #85, #46, #188 ) ;
#236 = CARTESIAN_POINT ( 'NONE',  ( 4.500000000000000000, 5.510910596163088569E-16, 200.0000000000000000 ) ) ;
#237 = PERSON_AND_ORGANIZATION ( #139, #43 ) ;
#238 = DIRECTION ( 'NONE',  ( -0.000000000000000000, -0.000000000000000000, -1.000000000000000000 ) ) ;
#239 = DATE_TIME_ROLE ( 'creation_date' ) ;
#240 = CARTESIAN_POINT ( 'NONE',  ( 0.000000000000000000, 0.000000000000000000, 0.000000000000000000 ) ) ;
#241 = PERSON_AND_ORGANIZATION ( #139, #43 ) ;
#242 = CYLINDRICAL_SURFACE ( 'NONE', #121, 7.000000000000000000 ) ;
#243 = PERSON_AND_ORGANIZATION_ROLE ( 'creator' ) ;
#244 =( LENGTH_UNIT ( ) NAMED_UNIT ( * ) SI_UNIT ( .MILLI., .METRE. ) );
#245 = EDGE_CURVE ( 'NONE', #194, #162, #11, .T. ) ;
#246 = LOCAL_TIME ( 12, 8, 47.00000000000000000, #201 ) ;
#247 = DIRECTION ( 'NONE',  ( 0.000000000000000000, 0.000000000000000000, 1.000000000000000000 ) ) ;
#248 = APPLICATION_CONTEXT ( 'configuration controlled 3d designs of mechanical parts and assemblies' ) ;
#249 = CARTESIAN_POINT ( 'NONE',  ( 0.000000000000000000, 0.000000000000000000, 200.0000000000000000 ) ) ;
#250 = EDGE_LOOP ( 'NONE', ( #48, #137, #52, #231 ) ) ;
#251 = ORIENTED_EDGE ( 'NONE', *, *, #245, .F. ) ;
#252 = VERTEX_POINT ( 'NONE', #24 ) ;
#253 = CIRCLE ( 'NONE', #3, 4.500000000000000000 ) ;
#254 = LINE ( 'NONE', #255, #211 ) ;
#255 = CARTESIAN_POINT ( 'NONE',  ( -4.500000000000000000, 0.000000000000000000, 200.0000000000000000 ) ) ;
ENDSEC;
END-ISO-10303-21;
