ISO-10303-21;
HEADER;
FILE_DESCRIPTION (( 'STEP AP203' ),
    '1' );
FILE_NAME ('4136.STEP',
    '2023-02-12T10:56:58',
    ( '' ),
    ( '' ),
    'SwSTEP 2.0',
    'SolidWorks 2019',
    '' );
FILE_SCHEMA (( 'CONFIG_CONTROL_DESIGN' ));
ENDSEC;

DATA;
#1 = DATE_TIME_ROLE ( 'creation_date' ) ;
#2 = DESIGN_CONTEXT ( 'detailed design', #58, 'design' ) ;
#3 = PERSON_AND_ORGANIZATION_ROLE ( 'design_supplier' ) ;
#4 = DIRECTION ( 'NONE',  ( -1.000000000000000000, 0.000000000000000000, 0.000000000000000000 ) ) ;
#5 = APPROVAL_ROLE ( '' ) ;
#6 = VERTEX_POINT ( 'NONE', #134 ) ;
#7 = EDGE_CURVE ( 'NONE', #93, #233, #20, .T. ) ;
#8 = APPROVAL_DATE_TIME ( #104, #224 ) ;
#9 = CLOSED_SHELL ( 'NONE', ( #204, #243, #25, #31, #38, #161, #232 ) ) ;
#10 = SECURITY_CLASSIFICATION ( '', '', #202 ) ;
#11 = EDGE_LOOP ( 'NONE', ( #174, #113, #252, #72 ) ) ;
#12 = DIRECTION ( 'NONE',  ( 0.000000000000000000, 0.000000000000000000, 1.000000000000000000 ) ) ;
#13 = CC_DESIGN_PERSON_AND_ORGANIZATION_ASSIGNMENT ( #197, #95, ( #157 ) ) ;
#14 = AXIS2_PLACEMENT_3D ( 'NONE', #28, #109, #122 ) ;
#15 = APPROVAL_STATUS ( 'not_yet_approved' ) ;
#16 = PRODUCT_DEFINITION ( 'NEZNÁMÝ', '', #242, #2 ) ;
#17 = LINE ( 'NONE', #40, #48 ) ;
#18 = EDGE_LOOP ( 'NONE', ( #139, #201, #121, #50 ) ) ;
#19 = PERSON_AND_ORGANIZATION_ROLE ( 'classification_officer' ) ;
#20 = LINE ( 'NONE', #171, #77 ) ;
#21 = DIRECTION ( 'NONE',  ( 1.000000000000000000, 0.000000000000000000, 0.000000000000000000 ) ) ;
#22 = AXIS2_PLACEMENT_3D ( 'NONE', #140, #168, #207 ) ;
#23 = DIRECTION ( 'NONE',  ( -0.000000000000000000, -0.000000000000000000, -1.000000000000000000 ) ) ;
#24 = VERTEX_POINT ( 'NONE', #71 ) ;
#25 = ADVANCED_FACE ( 'NONE', ( #98 ), #192, .T. ) ;
#26 = ORIENTED_EDGE ( 'NONE', *, *, #198, .F. ) ;
#27 = CARTESIAN_POINT ( 'NONE',  ( 5.500000000000000000, 6.735557395310442023E-16, 315.0000000000000000 ) ) ;
#28 = CARTESIAN_POINT ( 'NONE',  ( 0.000000000000000000, 0.000000000000000000, 5.000000000000000000 ) ) ;
#29 = ORGANIZATION ( 'NEURÈENÝ', 'NEURÈENÝ', '' ) ;
#30 = ORIENTED_EDGE ( 'NONE', *, *, #103, .T. ) ;
#31 = ADVANCED_FACE ( 'NONE', ( #249, #146 ), #209, .T. ) ;
#32 = CARTESIAN_POINT ( 'NONE',  ( -5.500000000000000000, 0.000000000000000000, 5.000000000000000000 ) ) ;
#33 = AXIS2_PLACEMENT_3D ( 'NONE', #76, #56, #245 ) ;
#34 = CC_DESIGN_APPROVAL ( #59, ( #242 ) ) ;
#35 = COORDINATED_UNIVERSAL_TIME_OFFSET ( 1, 0, .AHEAD. ) ;
#36 = APPLICATION_PROTOCOL_DEFINITION ( 'international standard', 'config_control_design', 1994, #58 ) ;
#37 = MECHANICAL_CONTEXT ( 'NONE', #147, 'mechanical' ) ;
#38 = ADVANCED_FACE ( 'NONE', ( #141 ), #127, .F. ) ;
#39 = APPROVAL_STATUS ( 'not_yet_approved' ) ;
#40 = CARTESIAN_POINT ( 'NONE',  ( 8.000000000000000000, 9.797174393178825657E-16, 5.000000000000000000 ) ) ;
#41 = CYLINDRICAL_SURFACE ( 'NONE', #155, 5.500000000000000000 ) ;
#42 = CARTESIAN_POINT ( 'NONE',  ( 0.000000000000000000, 0.000000000000000000, 315.0000000000000000 ) ) ;
#43 = DIRECTION ( 'NONE',  ( 0.000000000000000000, 0.000000000000000000, 1.000000000000000000 ) ) ;
#44 =( LENGTH_UNIT ( ) NAMED_UNIT ( * ) SI_UNIT ( .MILLI., .METRE. ) );
#45 = PERSON ( 'NEURÈENÝ', 'NEURÈENÝ', 'NEURÈENÝ', ('NEURÈENÝ'), ('NEURÈENÝ'), ('NEURÈENÝ') ) ;
#46 = DIRECTION ( 'NONE',  ( 1.000000000000000000, 0.000000000000000000, 0.000000000000000000 ) ) ;
#47 = EDGE_CURVE ( 'NONE', #117, #6, #226, .T. ) ;
#48 = VECTOR ( 'NONE', #23, 1000.000000000000000 ) ;
#49 = EDGE_CURVE ( 'NONE', #24, #93, #187, .T. ) ;
#50 = ORIENTED_EDGE ( 'NONE', *, *, #238, .F. ) ;
#51 = DATE_TIME_ROLE ( 'classification_date' ) ;
#52 = DIRECTION ( 'NONE',  ( 0.000000000000000000, 0.000000000000000000, 1.000000000000000000 ) ) ;
#53 = PERSON_AND_ORGANIZATION ( #45, #29 ) ;
#54 = AXIS2_PLACEMENT_3D ( 'NONE', #184, #200, #21 ) ;
#55 = DIRECTION ( 'NONE',  ( -0.000000000000000000, -0.000000000000000000, -1.000000000000000000 ) ) ;
#56 = DIRECTION ( 'NONE',  ( -0.000000000000000000, -0.000000000000000000, -1.000000000000000000 ) ) ;
#57 = PLANE ( 'NONE',  #97 ) ;
#58 = APPLICATION_CONTEXT ( 'configuration controlled 3d designs of mechanical parts and assemblies' ) ;
#59 = APPROVAL ( #39, 'NEURÈENÝ' ) ;
#60 = DIRECTION ( 'NONE',  ( 0.000000000000000000, 0.000000000000000000, 1.000000000000000000 ) ) ;
#61 = ORIENTED_EDGE ( 'NONE', *, *, #103, .F. ) ;
#62 =( GEOMETRIC_REPRESENTATION_CONTEXT ( 3 ) GLOBAL_UNCERTAINTY_ASSIGNED_CONTEXT ( ( #228 ) ) GLOBAL_UNIT_ASSIGNED_CONTEXT ( ( #44, #143, #241 ) ) REPRESENTATION_CONTEXT ( 'NONE', 'WORKASPACE' ) );
#63 = APPROVAL_PERSON_ORGANIZATION ( #234, #224, #5 ) ;
#64 = ORIENTED_EDGE ( 'NONE', *, *, #7, .T. ) ;
#65 = PERSON_AND_ORGANIZATION ( #45, #29 ) ;
#66 = DIRECTION ( 'NONE',  ( 1.000000000000000000, 0.000000000000000000, 0.000000000000000000 ) ) ;
#67 = EDGE_LOOP ( 'NONE', ( #182, #255 ) ) ;
#68 = PERSON_AND_ORGANIZATION ( #45, #29 ) ;
#69 = CARTESIAN_POINT ( 'NONE',  ( 0.000000000000000000, 0.000000000000000000, 5.000000000000000000 ) ) ;
#70 = DIRECTION ( 'NONE',  ( -0.000000000000000000, -0.000000000000000000, -1.000000000000000000 ) ) ;
#71 = CARTESIAN_POINT ( 'NONE',  ( 5.500000000000000000, 6.735557395310442023E-16, 315.0000000000000000 ) ) ;
#72 = ORIENTED_EDGE ( 'NONE', *, *, #7, .F. ) ;
#73 = COORDINATED_UNIVERSAL_TIME_OFFSET ( 1, 0, .AHEAD. ) ;
#74 = CC_DESIGN_DATE_AND_TIME_ASSIGNMENT ( #216, #51, ( #10 ) ) ;
#75 = ORIENTED_EDGE ( 'NONE', *, *, #214, .F. ) ;
#76 = CARTESIAN_POINT ( 'NONE',  ( 0.000000000000000000, 0.000000000000000000, 315.0000000000000000 ) ) ;
#77 = VECTOR ( 'NONE', #70, 1000.000000000000000 ) ;
#78 = ORIENTED_EDGE ( 'NONE', *, *, #144, .F. ) ;
#79 = SHAPE_DEFINITION_REPRESENTATION ( #114, #87 ) ;
#80 = LOCAL_TIME ( 11, 56, 58.00000000000000000, #153 ) ;
#81 = EDGE_LOOP ( 'NONE', ( #75, #26 ) ) ;
#82 = DIRECTION ( 'NONE',  ( -0.000000000000000000, -0.000000000000000000, -1.000000000000000000 ) ) ;
#83 = DIRECTION ( 'NONE',  ( 1.000000000000000000, 0.000000000000000000, -0.000000000000000000 ) ) ;
#84 = CIRCLE ( 'NONE', #230, 8.000000000000000000 ) ;
#85 = ORIENTED_EDGE ( 'NONE', *, *, #250, .F. ) ;
#86 = LOCAL_TIME ( 11, 56, 58.00000000000000000, #73 ) ;
#87 = ADVANCED_BREP_SHAPE_REPRESENTATION ( '4136', ( #208, #135 ), #62 ) ;
#88 = DIRECTION ( 'NONE',  ( 1.000000000000000000, 0.000000000000000000, -0.000000000000000000 ) ) ;
#89 = APPROVAL_STATUS ( 'not_yet_approved' ) ;
#90 = AXIS2_PLACEMENT_3D ( 'NONE', #101, #60, #220 ) ;
#91 = CALENDAR_DATE ( 2023, 12, 2 ) ;
#92 = CARTESIAN_POINT ( 'NONE',  ( 5.500000000000000000, 6.735557395310442023E-16, 5.000000000000000000 ) ) ;
#93 = VERTEX_POINT ( 'NONE', #132 ) ;
#94 = DATE_AND_TIME ( #175, #235 ) ;
#95 = PERSON_AND_ORGANIZATION_ROLE ( 'design_owner' ) ;
#96 = ORIENTED_EDGE ( 'NONE', *, *, #137, .T. ) ;
#97 = AXIS2_PLACEMENT_3D ( 'NONE', #225, #190, #83 ) ;
#98 = FACE_OUTER_BOUND ( 'NONE', #160, .T. ) ;
#99 = FACE_OUTER_BOUND ( 'NONE', #138, .T. ) ;
#100 = CARTESIAN_POINT ( 'NONE',  ( 0.000000000000000000, 0.000000000000000000, 315.0000000000000000 ) ) ;
#101 = CARTESIAN_POINT ( 'NONE',  ( 0.000000000000000000, 0.000000000000000000, 0.000000000000000000 ) ) ;
#102 = CIRCLE ( 'NONE', #110, 5.500000000000000000 ) ;
#103 = EDGE_CURVE ( 'NONE', #93, #24, #102, .T. ) ;
#104 = DATE_AND_TIME ( #189, #223 ) ;
#105 = CC_DESIGN_PERSON_AND_ORGANIZATION_ASSIGNMENT ( #68, #176, ( #16 ) ) ;
#106 = CARTESIAN_POINT ( 'NONE',  ( -8.000000000000000000, 0.000000000000000000, 0.000000000000000000 ) ) ;
#107 = CC_DESIGN_APPROVAL ( #149, ( #16 ) ) ;
#108 = VERTEX_POINT ( 'NONE', #151 ) ;
#109 = DIRECTION ( 'NONE',  ( 0.000000000000000000, 0.000000000000000000, 1.000000000000000000 ) ) ;
#110 = AXIS2_PLACEMENT_3D ( 'NONE', #100, #129, #66 ) ;
#111 = DIRECTION ( 'NONE',  ( 0.000000000000000000, 0.000000000000000000, 1.000000000000000000 ) ) ;
#112 = PERSON_AND_ORGANIZATION ( #45, #29 ) ;
#113 = ORIENTED_EDGE ( 'NONE', *, *, #250, .T. ) ;
#114 = PRODUCT_DEFINITION_SHAPE ( 'NONE', 'NONE',  #16 ) ;
#115 = APPROVAL_DATE_TIME ( #94, #149 ) ;
#116 = PERSON_AND_ORGANIZATION ( #45, #29 ) ;
#117 = VERTEX_POINT ( 'NONE', #196 ) ;
#118 = VERTEX_POINT ( 'NONE', #92 ) ;
#119 = CIRCLE ( 'NONE', #90, 8.000000000000000000 ) ;
#120 = CARTESIAN_POINT ( 'NONE',  ( -8.000000000000000000, 0.000000000000000000, 5.000000000000000000 ) ) ;
#121 = ORIENTED_EDGE ( 'NONE', *, *, #203, .T. ) ;
#122 = DIRECTION ( 'NONE',  ( 1.000000000000000000, 0.000000000000000000, 0.000000000000000000 ) ) ;
#123 = AXIS2_PLACEMENT_3D ( 'NONE', #164, #55, #222 ) ;
#124 = ORIENTED_EDGE ( 'NONE', *, *, #185, .T. ) ;
#125 = CARTESIAN_POINT ( 'NONE',  ( 0.000000000000000000, 0.000000000000000000, 0.000000000000000000 ) ) ;
#126 = CC_DESIGN_PERSON_AND_ORGANIZATION_ASSIGNMENT ( #116, #19, ( #10 ) ) ;
#127 = PLANE ( 'NONE',  #142 ) ;
#128 = CALENDAR_DATE ( 2023, 12, 2 ) ;
#129 = DIRECTION ( 'NONE',  ( 0.000000000000000000, 0.000000000000000000, 1.000000000000000000 ) ) ;
#130 = ORIENTED_EDGE ( 'NONE', *, *, #238, .T. ) ;
#131 = DIRECTION ( 'NONE',  ( 1.000000000000000000, 0.000000000000000000, -0.000000000000000000 ) ) ;
#132 = CARTESIAN_POINT ( 'NONE',  ( -5.500000000000000000, 0.000000000000000000, 315.0000000000000000 ) ) ;
#133 = COORDINATED_UNIVERSAL_TIME_OFFSET ( 1, 0, .AHEAD. ) ;
#134 = CARTESIAN_POINT ( 'NONE',  ( 8.000000000000000000, 9.797174393178825657E-16, 5.000000000000000000 ) ) ;
#135 = AXIS2_PLACEMENT_3D ( 'NONE', #193, #12, #251 ) ;
#136 = LINE ( 'NONE', #120, #240 ) ;
#137 = EDGE_CURVE ( 'NONE', #6, #117, #247, .T. ) ;
#138 = EDGE_LOOP ( 'NONE', ( #85, #61, #64, #219 ) ) ;
#139 = ORIENTED_EDGE ( 'NONE', *, *, #137, .F. ) ;
#140 = CARTESIAN_POINT ( 'NONE',  ( 0.000000000000000000, 0.000000000000000000, 5.000000000000000000 ) ) ;
#141 = FACE_OUTER_BOUND ( 'NONE', #67, .T. ) ;
#142 = AXIS2_PLACEMENT_3D ( 'NONE', #148, #154, #131 ) ;
#143 =( NAMED_UNIT ( * ) PLANE_ANGLE_UNIT ( ) SI_UNIT ( $, .RADIAN. ) );
#144 = EDGE_CURVE ( 'NONE', #6, #108, #17, .T. ) ;
#145 = FACE_OUTER_BOUND ( 'NONE', #11, .T. ) ;
#146 = FACE_OUTER_BOUND ( 'NONE', #212, .T. ) ;
#147 = APPLICATION_CONTEXT ( 'configuration controlled 3d designs of mechanical parts and assemblies' ) ;
#148 = CARTESIAN_POINT ( 'NONE',  ( 0.000000000000000000, 0.000000000000000000, 0.000000000000000000 ) ) ;
#149 = APPROVAL ( #15, 'NEURÈENÝ' ) ;
#150 = AXIS2_PLACEMENT_3D ( 'NONE', #170, #191, #46 ) ;
#151 = CARTESIAN_POINT ( 'NONE',  ( 8.000000000000000000, 9.797174393178825657E-16, 0.000000000000000000 ) ) ;
#152 = DIRECTION ( 'NONE',  ( 0.000000000000000000, 0.000000000000000000, 1.000000000000000000 ) ) ;
#153 = COORDINATED_UNIVERSAL_TIME_OFFSET ( 1, 0, .AHEAD. ) ;
#154 = DIRECTION ( 'NONE',  ( 0.000000000000000000, 0.000000000000000000, 1.000000000000000000 ) ) ;
#155 = AXIS2_PLACEMENT_3D ( 'NONE', #42, #178, #4 ) ;
#156 = CALENDAR_DATE ( 2023, 12, 2 ) ;
#157 = PRODUCT ( '4136', '4136', '', ( #37 ) ) ;
#158 = DIRECTION ( 'NONE',  ( 1.000000000000000000, 0.000000000000000000, 0.000000000000000000 ) ) ;
#159 = CIRCLE ( 'NONE', #150, 5.500000000000000000 ) ;
#160 = EDGE_LOOP ( 'NONE', ( #78, #165, #130, #124 ) ) ;
#161 = ADVANCED_FACE ( 'NONE', ( #99 ), #41, .T. ) ;
#162 = EDGE_LOOP ( 'NONE', ( #30, #172 ) ) ;
#163 = FACE_OUTER_BOUND ( 'NONE', #18, .T. ) ;
#164 = CARTESIAN_POINT ( 'NONE',  ( 0.000000000000000000, 0.000000000000000000, 5.000000000000000000 ) ) ;
#165 = ORIENTED_EDGE ( 'NONE', *, *, #47, .F. ) ;
#166 = VECTOR ( 'NONE', #194, 1000.000000000000000 ) ;
#167 = FACE_OUTER_BOUND ( 'NONE', #162, .T. ) ;
#168 = DIRECTION ( 'NONE',  ( -0.000000000000000000, -0.000000000000000000, -1.000000000000000000 ) ) ;
#169 = AXIS2_PLACEMENT_3D ( 'NONE', #69, #152, #236 ) ;
#170 = CARTESIAN_POINT ( 'NONE',  ( 0.000000000000000000, 0.000000000000000000, 5.000000000000000000 ) ) ;
#171 = CARTESIAN_POINT ( 'NONE',  ( -5.500000000000000000, 0.000000000000000000, 315.0000000000000000 ) ) ;
#172 = ORIENTED_EDGE ( 'NONE', *, *, #49, .T. ) ;
#173 = APPROVAL_PERSON_ORGANIZATION ( #65, #149, #195 ) ;
#174 = ORIENTED_EDGE ( 'NONE', *, *, #49, .F. ) ;
#175 = CALENDAR_DATE ( 2023, 12, 2 ) ;
#176 = PERSON_AND_ORGANIZATION_ROLE ( 'creator' ) ;
#177 = CC_DESIGN_PERSON_AND_ORGANIZATION_ASSIGNMENT ( #112, #3, ( #242 ) ) ;
#178 = DIRECTION ( 'NONE',  ( -0.000000000000000000, -0.000000000000000000, -1.000000000000000000 ) ) ;
#179 = DATE_AND_TIME ( #128, #86 ) ;
#180 = CARTESIAN_POINT ( 'NONE',  ( 0.000000000000000000, 0.000000000000000000, 315.0000000000000000 ) ) ;
#181 = CC_DESIGN_APPROVAL ( #224, ( #10 ) ) ;
#182 = ORIENTED_EDGE ( 'NONE', *, *, #185, .F. ) ;
#183 = DATE_AND_TIME ( #91, #80 ) ;
#184 = CARTESIAN_POINT ( 'NONE',  ( 0.000000000000000000, 0.000000000000000000, 5.000000000000000000 ) ) ;
#185 = EDGE_CURVE ( 'NONE', #205, #108, #119, .T. ) ;
#186 = PRODUCT_RELATED_PRODUCT_CATEGORY ( 'detail', '', ( #157 ) ) ;
#187 = CIRCLE ( 'NONE', #215, 5.500000000000000000 ) ;
#188 = COORDINATED_UNIVERSAL_TIME_OFFSET ( 1, 0, .AHEAD. ) ;
#189 = CALENDAR_DATE ( 2023, 12, 2 ) ;
#190 = DIRECTION ( 'NONE',  ( 0.000000000000000000, 0.000000000000000000, 1.000000000000000000 ) ) ;
#191 = DIRECTION ( 'NONE',  ( 0.000000000000000000, 0.000000000000000000, 1.000000000000000000 ) ) ;
#192 = CYLINDRICAL_SURFACE ( 'NONE', #123, 8.000000000000000000 ) ;
#193 = CARTESIAN_POINT ( 'NONE',  ( 0.000000000000000000, 0.000000000000000000, 0.000000000000000000 ) ) ;
#194 = DIRECTION ( 'NONE',  ( -0.000000000000000000, -0.000000000000000000, -1.000000000000000000 ) ) ;
#195 = APPROVAL_ROLE ( '' ) ;
#196 = CARTESIAN_POINT ( 'NONE',  ( -8.000000000000000000, 0.000000000000000000, 5.000000000000000000 ) ) ;
#197 = PERSON_AND_ORGANIZATION ( #45, #29 ) ;
#198 = EDGE_CURVE ( 'NONE', #118, #233, #159, .T. ) ;
#199 = PERSON_AND_ORGANIZATION ( #45, #29 ) ;
#200 = DIRECTION ( 'NONE',  ( 0.000000000000000000, 0.000000000000000000, 1.000000000000000000 ) ) ;
#201 = ORIENTED_EDGE ( 'NONE', *, *, #144, .T. ) ;
#202 = SECURITY_CLASSIFICATION_LEVEL ( 'unclassified' ) ;
#203 = EDGE_CURVE ( 'NONE', #108, #205, #84, .T. ) ;
#204 = ADVANCED_FACE ( 'NONE', ( #145 ), #221, .T. ) ;
#205 = VERTEX_POINT ( 'NONE', #106 ) ;
#206 = DIRECTION ( 'NONE',  ( 1.000000000000000000, 0.000000000000000000, 0.000000000000000000 ) ) ;
#207 = DIRECTION ( 'NONE',  ( -1.000000000000000000, 0.000000000000000000, 0.000000000000000000 ) ) ;
#208 = MANIFOLD_SOLID_BREP ( 'Pøidat vysunutím3', #9 ) ;
#209 = PLANE ( 'NONE',  #218 ) ;
#210 = CARTESIAN_POINT ( 'NONE',  ( 0.000000000000000000, 0.000000000000000000, 5.000000000000000000 ) ) ;
#211 = CIRCLE ( 'NONE', #14, 5.500000000000000000 ) ;
#212 = EDGE_LOOP ( 'NONE', ( #244, #96 ) ) ;
#213 = APPROVAL_ROLE ( '' ) ;
#214 = EDGE_CURVE ( 'NONE', #233, #118, #211, .T. ) ;
#215 = AXIS2_PLACEMENT_3D ( 'NONE', #180, #52, #158 ) ;
#216 = DATE_AND_TIME ( #156, #237 ) ;
#217 = CC_DESIGN_PERSON_AND_ORGANIZATION_ASSIGNMENT ( #53, #229, ( #242 ) ) ;
#218 = AXIS2_PLACEMENT_3D ( 'NONE', #210, #111, #88 ) ;
#219 = ORIENTED_EDGE ( 'NONE', *, *, #214, .T. ) ;
#220 = DIRECTION ( 'NONE',  ( 1.000000000000000000, 0.000000000000000000, 0.000000000000000000 ) ) ;
#221 = CYLINDRICAL_SURFACE ( 'NONE', #33, 5.500000000000000000 ) ;
#222 = DIRECTION ( 'NONE',  ( -1.000000000000000000, 0.000000000000000000, 0.000000000000000000 ) ) ;
#223 = LOCAL_TIME ( 11, 56, 58.00000000000000000, #188 ) ;
#224 = APPROVAL ( #89, 'NEURÈENÝ' ) ;
#225 = CARTESIAN_POINT ( 'NONE',  ( 0.000000000000000000, 0.000000000000000000, 315.0000000000000000 ) ) ;
#226 = CIRCLE ( 'NONE', #54, 8.000000000000000000 ) ;
#227 = APPROVAL_PERSON_ORGANIZATION ( #199, #59, #213 ) ;
#228 = UNCERTAINTY_MEASURE_WITH_UNIT (LENGTH_MEASURE( 1.000000000000000082E-05 ), #44, 'distance_accuracy_value', 'NONE');
#229 = PERSON_AND_ORGANIZATION_ROLE ( 'creator' ) ;
#230 = AXIS2_PLACEMENT_3D ( 'NONE', #125, #43, #206 ) ;
#231 = CC_DESIGN_SECURITY_CLASSIFICATION ( #10, ( #242 ) ) ;
#232 = ADVANCED_FACE ( 'NONE', ( #167 ), #57, .T. ) ;
#233 = VERTEX_POINT ( 'NONE', #32 ) ;
#234 = PERSON_AND_ORGANIZATION ( #45, #29 ) ;
#235 = LOCAL_TIME ( 11, 56, 58.00000000000000000, #35 ) ;
#236 = DIRECTION ( 'NONE',  ( 1.000000000000000000, 0.000000000000000000, 0.000000000000000000 ) ) ;
#237 = LOCAL_TIME ( 11, 56, 58.00000000000000000, #133 ) ;
#238 = EDGE_CURVE ( 'NONE', #117, #205, #136, .T. ) ;
#239 = LINE ( 'NONE', #27, #166 ) ;
#240 = VECTOR ( 'NONE', #82, 1000.000000000000000 ) ;
#241 =( NAMED_UNIT ( * ) SI_UNIT ( $, .STERADIAN. ) SOLID_ANGLE_UNIT ( ) );
#242 = PRODUCT_DEFINITION_FORMATION_WITH_SPECIFIED_SOURCE ( 'LIBOVOLNÝ', '', #157, .NOT_KNOWN. ) ;
#243 = ADVANCED_FACE ( 'NONE', ( #163 ), #248, .T. ) ;
#244 = ORIENTED_EDGE ( 'NONE', *, *, #47, .T. ) ;
#245 = DIRECTION ( 'NONE',  ( -1.000000000000000000, 0.000000000000000000, 0.000000000000000000 ) ) ;
#246 = APPLICATION_PROTOCOL_DEFINITION ( 'international standard', 'config_control_design', 1994, #147 ) ;
#247 = CIRCLE ( 'NONE', #169, 8.000000000000000000 ) ;
#248 = CYLINDRICAL_SURFACE ( 'NONE', #22, 8.000000000000000000 ) ;
#249 = FACE_BOUND ( 'NONE', #81, .T. ) ;
#250 = EDGE_CURVE ( 'NONE', #24, #118, #239, .T. ) ;
#251 = DIRECTION ( 'NONE',  ( 1.000000000000000000, 0.000000000000000000, 0.000000000000000000 ) ) ;
#252 = ORIENTED_EDGE ( 'NONE', *, *, #198, .T. ) ;
#253 = APPROVAL_DATE_TIME ( #183, #59 ) ;
#254 = CC_DESIGN_DATE_AND_TIME_ASSIGNMENT ( #179, #1, ( #16 ) ) ;
#255 = ORIENTED_EDGE ( 'NONE', *, *, #203, .F. ) ;
ENDSEC;
END-ISO-10303-21;
