ISO-10303-21;
HEADER;
FILE_DESCRIPTION (( 'STEP AP203' ),
    '1' );
FILE_NAME ('110d.STEP',
    '2023-02-12T12:12:52',
    ( '' ),
    ( '' ),
    'SwSTEP 2.0',
    'SolidWorks 2019',
    '' );
FILE_SCHEMA (( 'CONFIG_CONTROL_DESIGN' ));
ENDSEC;

DATA;
#1 =( GEOMETRIC_REPRESENTATION_CONTEXT ( 3 ) GLOBAL_UNCERTAINTY_ASSIGNED_CONTEXT ( ( #47 ) ) GLOBAL_UNIT_ASSIGNED_CONTEXT ( ( #44, #159, #81 ) ) REPRESENTATION_CONTEXT ( 'NONE', 'WORKASPACE' ) );
#2 = DIRECTION ( 'NONE',  ( 1.000000000000000000, 0.000000000000000000, -0.000000000000000000 ) ) ;
#3 = DIRECTION ( 'NONE',  ( -0.000000000000000000, -0.000000000000000000, -1.000000000000000000 ) ) ;
#4 = CYLINDRICAL_SURFACE ( 'NONE', #30, 1.600000000000000089 ) ;
#5 = PERSON_AND_ORGANIZATION ( #131, #115 ) ;
#6 = CARTESIAN_POINT ( 'NONE',  ( -1.600000000000000089, 0.000000000000000000, 100.0000000000000000 ) ) ;
#7 = EDGE_CURVE ( 'NONE', #152, #31, #74, .T. ) ;
#8 = CARTESIAN_POINT ( 'NONE',  ( 3.000000000000000444, 3.673940397442060361E-16, 0.000000000000000000 ) ) ;
#9 = AXIS2_PLACEMENT_3D ( 'NONE', #135, #120, #26 ) ;
#10 = FACE_OUTER_BOUND ( 'NONE', #111, .T. ) ;
#11 = DIRECTION ( 'NONE',  ( 0.000000000000000000, 0.000000000000000000, 1.000000000000000000 ) ) ;
#12 = CARTESIAN_POINT ( 'NONE',  ( -3.000000000000000444, 0.000000000000000000, 3.000000000000000000 ) ) ;
#13 = APPROVAL_ROLE ( '' ) ;
#14 = EDGE_CURVE ( 'NONE', #235, #34, #63, .T. ) ;
#15 = ORIENTED_EDGE ( 'NONE', *, *, #172, .F. ) ;
#16 = DATE_AND_TIME ( #195, #122 ) ;
#17 = ORIENTED_EDGE ( 'NONE', *, *, #193, .T. ) ;
#18 = ORIENTED_EDGE ( 'NONE', *, *, #102, .T. ) ;
#19 = AXIS2_PLACEMENT_3D ( 'NONE', #105, #124, #123 ) ;
#20 = CALENDAR_DATE ( 2023, 12, 2 ) ;
#21 = EDGE_LOOP ( 'NONE', ( #70, #69, #129, #233 ) ) ;
#22 = CC_DESIGN_PERSON_AND_ORGANIZATION_ASSIGNMENT ( #198, #89, ( #58 ) ) ;
#23 = DIRECTION ( 'NONE',  ( 0.000000000000000000, 0.000000000000000000, 1.000000000000000000 ) ) ;
#24 = LOCAL_TIME ( 13, 12, 52.00000000000000000, #144 ) ;
#25 = FACE_OUTER_BOUND ( 'NONE', #155, .T. ) ;
#26 = DIRECTION ( 'NONE',  ( 1.000000000000000000, 0.000000000000000000, 0.000000000000000000 ) ) ;
#27 = FACE_OUTER_BOUND ( 'NONE', #194, .T. ) ;
#28 = ADVANCED_BREP_SHAPE_REPRESENTATION ( '110d', ( #166, #93 ), #1 ) ;
#29 = DIRECTION ( 'NONE',  ( 0.000000000000000000, 0.000000000000000000, 1.000000000000000000 ) ) ;
#30 = AXIS2_PLACEMENT_3D ( 'NONE', #78, #139, #189 ) ;
#31 = VERTEX_POINT ( 'NONE', #55 ) ;
#32 = AXIS2_PLACEMENT_3D ( 'NONE', #143, #145, #101 ) ;
#33 = ADVANCED_FACE ( 'NONE', ( #205, #25 ), #96, .T. ) ;
#34 = VERTEX_POINT ( 'NONE', #76 ) ;
#35 = ORIENTED_EDGE ( 'NONE', *, *, #240, .T. ) ;
#36 = CC_DESIGN_DATE_AND_TIME_ASSIGNMENT ( #16, #191, ( #182 ) ) ;
#37 = AXIS2_PLACEMENT_3D ( 'NONE', #140, #183, #242 ) ;
#38 = APPROVAL_PERSON_ORGANIZATION ( #5, #150, #241 ) ;
#39 = SHAPE_DEFINITION_REPRESENTATION ( #236, #28 ) ;
#40 = CARTESIAN_POINT ( 'NONE',  ( 1.600000000000000089, 1.959434878635764737E-16, 100.0000000000000000 ) ) ;
#41 = CIRCLE ( 'NONE', #223, 1.600000000000000089 ) ;
#42 = DIRECTION ( 'NONE',  ( -1.000000000000000000, 0.000000000000000000, 0.000000000000000000 ) ) ;
#43 = DATE_AND_TIME ( #219, #244 ) ;
#44 =( LENGTH_UNIT ( ) NAMED_UNIT ( * ) SI_UNIT ( .MILLI., .METRE. ) );
#45 = CARTESIAN_POINT ( 'NONE',  ( 0.000000000000000000, 0.000000000000000000, 100.0000000000000000 ) ) ;
#46 = VECTOR ( 'NONE', #165, 1000.000000000000000 ) ;
#47 = UNCERTAINTY_MEASURE_WITH_UNIT (LENGTH_MEASURE( 1.000000000000000082E-05 ), #44, 'distance_accuracy_value', 'NONE');
#48 = APPROVAL_DATE_TIME ( #68, #75 ) ;
#49 = CIRCLE ( 'NONE', #32, 1.600000000000000089 ) ;
#50 = DIRECTION ( 'NONE',  ( 0.000000000000000000, 0.000000000000000000, 1.000000000000000000 ) ) ;
#51 = ORIENTED_EDGE ( 'NONE', *, *, #7, .T. ) ;
#52 = EDGE_CURVE ( 'NONE', #215, #170, #41, .T. ) ;
#53 = EDGE_LOOP ( 'NONE', ( #149, #18 ) ) ;
#54 = APPROVAL_DATE_TIME ( #181, #150 ) ;
#55 = CARTESIAN_POINT ( 'NONE',  ( 1.600000000000000089, 1.959434878635764737E-16, 3.000000000000000000 ) ) ;
#56 = DIRECTION ( 'NONE',  ( 1.000000000000000000, 0.000000000000000000, 0.000000000000000000 ) ) ;
#57 = CARTESIAN_POINT ( 'NONE',  ( 1.600000000000000089, 1.959434878635764737E-16, 100.0000000000000000 ) ) ;
#58 = PRODUCT_DEFINITION_FORMATION_WITH_SPECIFIED_SOURCE ( 'LIBOVOLNÝ', '', #130, .NOT_KNOWN. ) ;
#59 = CARTESIAN_POINT ( 'NONE',  ( 0.000000000000000000, 0.000000000000000000, 0.000000000000000000 ) ) ;
#60 = CARTESIAN_POINT ( 'NONE',  ( -1.600000000000000089, 0.000000000000000000, 100.0000000000000000 ) ) ;
#61 = CARTESIAN_POINT ( 'NONE',  ( -1.600000000000000089, 0.000000000000000000, 3.000000000000000000 ) ) ;
#62 = APPROVAL_ROLE ( '' ) ;
#63 = CIRCLE ( 'NONE', #230, 3.000000000000000444 ) ;
#64 = VECTOR ( 'NONE', #245, 1000.000000000000000 ) ;
#65 = DIRECTION ( 'NONE',  ( -1.000000000000000000, 0.000000000000000000, 0.000000000000000000 ) ) ;
#66 = APPROVAL_STATUS ( 'not_yet_approved' ) ;
#67 = CALENDAR_DATE ( 2023, 12, 2 ) ;
#68 = DATE_AND_TIME ( #67, #216 ) ;
#69 = ORIENTED_EDGE ( 'NONE', *, *, #218, .T. ) ;
#70 = ORIENTED_EDGE ( 'NONE', *, *, #240, .F. ) ;
#71 = PERSON_AND_ORGANIZATION_ROLE ( 'design_supplier' ) ;
#72 = EDGE_LOOP ( 'NONE', ( #15, #113, #250, #51 ) ) ;
#73 = AXIS2_PLACEMENT_3D ( 'NONE', #158, #136, #42 ) ;
#74 = CIRCLE ( 'NONE', #178, 1.600000000000000089 ) ;
#75 = APPROVAL ( #248, 'NEURÈENÝ' ) ;
#76 = CARTESIAN_POINT ( 'NONE',  ( -3.000000000000000444, 0.000000000000000000, 0.000000000000000000 ) ) ;
#77 = CYLINDRICAL_SURFACE ( 'NONE', #73, 3.000000000000000444 ) ;
#78 = CARTESIAN_POINT ( 'NONE',  ( 0.000000000000000000, 0.000000000000000000, 100.0000000000000000 ) ) ;
#79 = FACE_OUTER_BOUND ( 'NONE', #53, .T. ) ;
#80 = ADVANCED_FACE ( 'NONE', ( #184 ), #4, .T. ) ;
#81 =( NAMED_UNIT ( * ) SI_UNIT ( $, .STERADIAN. ) SOLID_ANGLE_UNIT ( ) );
#82 = CARTESIAN_POINT ( 'NONE',  ( 0.000000000000000000, 0.000000000000000000, 0.000000000000000000 ) ) ;
#83 = CYLINDRICAL_SURFACE ( 'NONE', #103, 1.600000000000000089 ) ;
#84 = APPROVAL_PERSON_ORGANIZATION ( #169, #75, #62 ) ;
#85 = APPLICATION_PROTOCOL_DEFINITION ( 'international standard', 'config_control_design', 1994, #114 ) ;
#86 = ORIENTED_EDGE ( 'NONE', *, *, #7, .F. ) ;
#87 = PRODUCT_RELATED_PRODUCT_CATEGORY ( 'detail', '', ( #130 ) ) ;
#88 = PERSON_AND_ORGANIZATION ( #131, #115 ) ;
#89 = PERSON_AND_ORGANIZATION_ROLE ( 'creator' ) ;
#90 = ORIENTED_EDGE ( 'NONE', *, *, #14, .F. ) ;
#91 = VERTEX_POINT ( 'NONE', #12 ) ;
#92 = CARTESIAN_POINT ( 'NONE',  ( 0.000000000000000000, 0.000000000000000000, 3.000000000000000000 ) ) ;
#93 = AXIS2_PLACEMENT_3D ( 'NONE', #82, #192, #110 ) ;
#94 = ADVANCED_FACE ( 'NONE', ( #27 ), #83, .T. ) ;
#95 = DESIGN_CONTEXT ( 'detailed design', #114, 'design' ) ;
#96 = PLANE ( 'NONE',  #153 ) ;
#97 = PERSON_AND_ORGANIZATION ( #131, #115 ) ;
#98 = LINE ( 'NONE', #60, #46 ) ;
#99 = CARTESIAN_POINT ( 'NONE',  ( 0.000000000000000000, 0.000000000000000000, 100.0000000000000000 ) ) ;
#100 = LINE ( 'NONE', #40, #64 ) ;
#101 = DIRECTION ( 'NONE',  ( 1.000000000000000000, 0.000000000000000000, 0.000000000000000000 ) ) ;
#102 = EDGE_CURVE ( 'NONE', #170, #215, #49, .T. ) ;
#103 = AXIS2_PLACEMENT_3D ( 'NONE', #167, #227, #65 ) ;
#104 = PLANE ( 'NONE',  #251 ) ;
#105 = CARTESIAN_POINT ( 'NONE',  ( 0.000000000000000000, 0.000000000000000000, 0.000000000000000000 ) ) ;
#106 = APPLICATION_PROTOCOL_DEFINITION ( 'international standard', 'config_control_design', 1994, #247 ) ;
#107 = VECTOR ( 'NONE', #3, 1000.000000000000000 ) ;
#108 = ORIENTED_EDGE ( 'NONE', *, *, #147, .T. ) ;
#109 = COORDINATED_UNIVERSAL_TIME_OFFSET ( 1, 0, .AHEAD. ) ;
#110 = DIRECTION ( 'NONE',  ( 1.000000000000000000, 0.000000000000000000, 0.000000000000000000 ) ) ;
#111 = EDGE_LOOP ( 'NONE', ( #202, #252, #128, #173 ) ) ;
#112 = AXIS2_PLACEMENT_3D ( 'NONE', #209, #188, #56 ) ;
#113 = ORIENTED_EDGE ( 'NONE', *, *, #52, .F. ) ;
#114 = APPLICATION_CONTEXT ( 'configuration controlled 3d designs of mechanical parts and assemblies' ) ;
#115 = ORGANIZATION ( 'NEURÈENÝ', 'NEURÈENÝ', '' ) ;
#116 = CC_DESIGN_PERSON_AND_ORGANIZATION_ASSIGNMENT ( #125, #213, ( #182 ) ) ;
#117 = CARTESIAN_POINT ( 'NONE',  ( 0.000000000000000000, 0.000000000000000000, 0.000000000000000000 ) ) ;
#118 = COORDINATED_UNIVERSAL_TIME_OFFSET ( 1, 0, .AHEAD. ) ;
#119 = EDGE_CURVE ( 'NONE', #215, #152, #98, .T. ) ;
#120 = DIRECTION ( 'NONE',  ( 0.000000000000000000, 0.000000000000000000, 1.000000000000000000 ) ) ;
#121 = DIRECTION ( 'NONE',  ( 1.000000000000000000, 0.000000000000000000, 0.000000000000000000 ) ) ;
#122 = LOCAL_TIME ( 13, 12, 52.00000000000000000, #109 ) ;
#123 = DIRECTION ( 'NONE',  ( 1.000000000000000000, 0.000000000000000000, 0.000000000000000000 ) ) ;
#124 = DIRECTION ( 'NONE',  ( 0.000000000000000000, 0.000000000000000000, 1.000000000000000000 ) ) ;
#125 = PERSON_AND_ORGANIZATION ( #131, #115 ) ;
#126 = EDGE_LOOP ( 'NONE', ( #86, #238 ) ) ;
#127 = CIRCLE ( 'NONE', #9, 3.000000000000000444 ) ;
#128 = ORIENTED_EDGE ( 'NONE', *, *, #197, .T. ) ;
#129 = ORIENTED_EDGE ( 'NONE', *, *, #14, .T. ) ;
#130 = PRODUCT ( '110d', '110d', '', ( #214 ) ) ;
#131 = PERSON ( 'NEURÈENÝ', 'NEURÈENÝ', 'NEURÈENÝ', ('NEURÈENÝ'), ('NEURÈENÝ'), ('NEURÈENÝ') ) ;
#132 = APPROVAL_STATUS ( 'not_yet_approved' ) ;
#133 = CC_DESIGN_APPROVAL ( #75, ( #182 ) ) ;
#134 = DIRECTION ( 'NONE',  ( 1.000000000000000000, 0.000000000000000000, 0.000000000000000000 ) ) ;
#135 = CARTESIAN_POINT ( 'NONE',  ( 0.000000000000000000, 0.000000000000000000, 3.000000000000000000 ) ) ;
#136 = DIRECTION ( 'NONE',  ( -0.000000000000000000, -0.000000000000000000, -1.000000000000000000 ) ) ;
#137 = CC_DESIGN_APPROVAL ( #206, ( #58 ) ) ;
#138 = FACE_OUTER_BOUND ( 'NONE', #196, .T. ) ;
#139 = DIRECTION ( 'NONE',  ( -0.000000000000000000, -0.000000000000000000, -1.000000000000000000 ) ) ;
#140 = CARTESIAN_POINT ( 'NONE',  ( 0.000000000000000000, 0.000000000000000000, 3.000000000000000000 ) ) ;
#141 = CARTESIAN_POINT ( 'NONE',  ( 3.000000000000000444, 3.673940397442060361E-16, 3.000000000000000000 ) ) ;
#142 = SECURITY_CLASSIFICATION ( '', '', #151 ) ;
#143 = CARTESIAN_POINT ( 'NONE',  ( 0.000000000000000000, 0.000000000000000000, 100.0000000000000000 ) ) ;
#144 = COORDINATED_UNIVERSAL_TIME_OFFSET ( 1, 0, .AHEAD. ) ;
#145 = DIRECTION ( 'NONE',  ( 0.000000000000000000, 0.000000000000000000, 1.000000000000000000 ) ) ;
#146 = CARTESIAN_POINT ( 'NONE',  ( 0.000000000000000000, 0.000000000000000000, 3.000000000000000000 ) ) ;
#147 = EDGE_CURVE ( 'NONE', #91, #171, #174, .T. ) ;
#148 = DATE_AND_TIME ( #231, #24 ) ;
#149 = ORIENTED_EDGE ( 'NONE', *, *, #52, .T. ) ;
#150 = APPROVAL ( #132, 'NEURÈENÝ' ) ;
#151 = SECURITY_CLASSIFICATION_LEVEL ( 'unclassified' ) ;
#152 = VERTEX_POINT ( 'NONE', #61 ) ;
#153 = AXIS2_PLACEMENT_3D ( 'NONE', #92, #179, #2 ) ;
#154 = VECTOR ( 'NONE', #190, 1000.000000000000000 ) ;
#155 = EDGE_LOOP ( 'NONE', ( #108, #35 ) ) ;
#156 = COORDINATED_UNIVERSAL_TIME_OFFSET ( 1, 0, .AHEAD. ) ;
#157 = DIRECTION ( 'NONE',  ( 1.000000000000000000, 0.000000000000000000, 0.000000000000000000 ) ) ;
#158 = CARTESIAN_POINT ( 'NONE',  ( 0.000000000000000000, 0.000000000000000000, 3.000000000000000000 ) ) ;
#159 =( NAMED_UNIT ( * ) PLANE_ANGLE_UNIT ( ) SI_UNIT ( $, .RADIAN. ) );
#160 = LOCAL_TIME ( 13, 12, 52.00000000000000000, #118 ) ;
#161 = CC_DESIGN_PERSON_AND_ORGANIZATION_ASSIGNMENT ( #97, #71, ( #58 ) ) ;
#162 = DIRECTION ( 'NONE',  ( 1.000000000000000000, 0.000000000000000000, -0.000000000000000000 ) ) ;
#163 = CC_DESIGN_PERSON_AND_ORGANIZATION_ASSIGNMENT ( #246, #168, ( #130 ) ) ;
#164 = ADVANCED_FACE ( 'NONE', ( #79 ), #207, .T. ) ;
#165 = DIRECTION ( 'NONE',  ( -0.000000000000000000, -0.000000000000000000, -1.000000000000000000 ) ) ;
#166 = MANIFOLD_SOLID_BREP ( 'Pøidat vysunutím3', #200 ) ;
#167 = CARTESIAN_POINT ( 'NONE',  ( 0.000000000000000000, 0.000000000000000000, 100.0000000000000000 ) ) ;
#168 = PERSON_AND_ORGANIZATION_ROLE ( 'design_owner' ) ;
#169 = PERSON_AND_ORGANIZATION ( #131, #115 ) ;
#170 = VERTEX_POINT ( 'NONE', #57 ) ;
#171 = VERTEX_POINT ( 'NONE', #141 ) ;
#172 = EDGE_CURVE ( 'NONE', #170, #31, #100, .T. ) ;
#173 = ORIENTED_EDGE ( 'NONE', *, *, #217, .T. ) ;
#174 = CIRCLE ( 'NONE', #180, 3.000000000000000444 ) ;
#175 = AXIS2_PLACEMENT_3D ( 'NONE', #45, #29, #162 ) ;
#176 = DIRECTION ( 'NONE',  ( 0.000000000000000000, 0.000000000000000000, 1.000000000000000000 ) ) ;
#177 = ADVANCED_FACE ( 'NONE', ( #229 ), #210, .T. ) ;
#178 = AXIS2_PLACEMENT_3D ( 'NONE', #146, #50, #134 ) ;
#179 = DIRECTION ( 'NONE',  ( 0.000000000000000000, 0.000000000000000000, 1.000000000000000000 ) ) ;
#180 = AXIS2_PLACEMENT_3D ( 'NONE', #220, #243, #157 ) ;
#181 = DATE_AND_TIME ( #20, #160 ) ;
#182 = PRODUCT_DEFINITION ( 'NEZNÁMÝ', '', #58, #95 ) ;
#183 = DIRECTION ( 'NONE',  ( -0.000000000000000000, -0.000000000000000000, -1.000000000000000000 ) ) ;
#184 = FACE_OUTER_BOUND ( 'NONE', #72, .T. ) ;
#185 = CARTESIAN_POINT ( 'NONE',  ( -3.000000000000000444, 0.000000000000000000, 3.000000000000000000 ) ) ;
#186 = CC_DESIGN_DATE_AND_TIME_ASSIGNMENT ( #43, #237, ( #142 ) ) ;
#187 = CARTESIAN_POINT ( 'NONE',  ( 3.000000000000000444, 3.673940397442060361E-16, 3.000000000000000000 ) ) ;
#188 = DIRECTION ( 'NONE',  ( 0.000000000000000000, 0.000000000000000000, 1.000000000000000000 ) ) ;
#189 = DIRECTION ( 'NONE',  ( -1.000000000000000000, 0.000000000000000000, 0.000000000000000000 ) ) ;
#190 = DIRECTION ( 'NONE',  ( -0.000000000000000000, -0.000000000000000000, -1.000000000000000000 ) ) ;
#191 = DATE_TIME_ROLE ( 'creation_date' ) ;
#192 = DIRECTION ( 'NONE',  ( 0.000000000000000000, 0.000000000000000000, 1.000000000000000000 ) ) ;
#193 = EDGE_CURVE ( 'NONE', #31, #152, #254, .T. ) ;
#194 = EDGE_LOOP ( 'NONE', ( #199, #253, #17, #211 ) ) ;
#195 = CALENDAR_DATE ( 2023, 12, 2 ) ;
#196 = EDGE_LOOP ( 'NONE', ( #239, #90 ) ) ;
#197 = EDGE_CURVE ( 'NONE', #91, #34, #226, .T. ) ;
#198 = PERSON_AND_ORGANIZATION ( #131, #115 ) ;
#199 = ORIENTED_EDGE ( 'NONE', *, *, #102, .F. ) ;
#200 = CLOSED_SHELL ( 'NONE', ( #94, #177, #255, #33, #234, #80, #164 ) ) ;
#201 = APPROVAL_PERSON_ORGANIZATION ( #88, #206, #13 ) ;
#202 = ORIENTED_EDGE ( 'NONE', *, *, #218, .F. ) ;
#203 = CC_DESIGN_SECURITY_CLASSIFICATION ( #142, ( #58 ) ) ;
#204 = CC_DESIGN_PERSON_AND_ORGANIZATION_ASSIGNMENT ( #221, #225, ( #142 ) ) ;
#205 = FACE_BOUND ( 'NONE', #126, .T. ) ;
#206 = APPROVAL ( #66, 'NEURÈENÝ' ) ;
#207 = PLANE ( 'NONE',  #175 ) ;
#208 = DIRECTION ( 'NONE',  ( 1.000000000000000000, 0.000000000000000000, 0.000000000000000000 ) ) ;
#209 = CARTESIAN_POINT ( 'NONE',  ( 0.000000000000000000, 0.000000000000000000, 3.000000000000000000 ) ) ;
#210 = CYLINDRICAL_SURFACE ( 'NONE', #37, 3.000000000000000444 ) ;
#211 = ORIENTED_EDGE ( 'NONE', *, *, #119, .F. ) ;
#212 = CIRCLE ( 'NONE', #19, 3.000000000000000444 ) ;
#213 = PERSON_AND_ORGANIZATION_ROLE ( 'creator' ) ;
#214 = MECHANICAL_CONTEXT ( 'NONE', #247, 'mechanical' ) ;
#215 = VERTEX_POINT ( 'NONE', #6 ) ;
#216 = LOCAL_TIME ( 13, 12, 52.00000000000000000, #249 ) ;
#217 = EDGE_CURVE ( 'NONE', #34, #235, #212, .T. ) ;
#218 = EDGE_CURVE ( 'NONE', #171, #235, #222, .T. ) ;
#219 = CALENDAR_DATE ( 2023, 12, 2 ) ;
#220 = CARTESIAN_POINT ( 'NONE',  ( 0.000000000000000000, 0.000000000000000000, 3.000000000000000000 ) ) ;
#221 = PERSON_AND_ORGANIZATION ( #131, #115 ) ;
#222 = LINE ( 'NONE', #187, #154 ) ;
#223 = AXIS2_PLACEMENT_3D ( 'NONE', #99, #176, #208 ) ;
#224 = CC_DESIGN_APPROVAL ( #150, ( #142 ) ) ;
#225 = PERSON_AND_ORGANIZATION_ROLE ( 'classification_officer' ) ;
#226 = LINE ( 'NONE', #185, #107 ) ;
#227 = DIRECTION ( 'NONE',  ( -0.000000000000000000, -0.000000000000000000, -1.000000000000000000 ) ) ;
#228 = DIRECTION ( 'NONE',  ( 1.000000000000000000, 0.000000000000000000, -0.000000000000000000 ) ) ;
#229 = FACE_OUTER_BOUND ( 'NONE', #21, .T. ) ;
#230 = AXIS2_PLACEMENT_3D ( 'NONE', #117, #23, #121 ) ;
#231 = CALENDAR_DATE ( 2023, 12, 2 ) ;
#232 = APPROVAL_DATE_TIME ( #148, #206 ) ;
#233 = ORIENTED_EDGE ( 'NONE', *, *, #197, .F. ) ;
#234 = ADVANCED_FACE ( 'NONE', ( #138 ), #104, .F. ) ;
#235 = VERTEX_POINT ( 'NONE', #8 ) ;
#236 = PRODUCT_DEFINITION_SHAPE ( 'NONE', 'NONE',  #182 ) ;
#237 = DATE_TIME_ROLE ( 'classification_date' ) ;
#238 = ORIENTED_EDGE ( 'NONE', *, *, #193, .F. ) ;
#239 = ORIENTED_EDGE ( 'NONE', *, *, #217, .F. ) ;
#240 = EDGE_CURVE ( 'NONE', #171, #91, #127, .T. ) ;
#241 = APPROVAL_ROLE ( '' ) ;
#242 = DIRECTION ( 'NONE',  ( -1.000000000000000000, 0.000000000000000000, 0.000000000000000000 ) ) ;
#243 = DIRECTION ( 'NONE',  ( 0.000000000000000000, 0.000000000000000000, 1.000000000000000000 ) ) ;
#244 = LOCAL_TIME ( 13, 12, 52.00000000000000000, #156 ) ;
#245 = DIRECTION ( 'NONE',  ( -0.000000000000000000, -0.000000000000000000, -1.000000000000000000 ) ) ;
#246 = PERSON_AND_ORGANIZATION ( #131, #115 ) ;
#247 = APPLICATION_CONTEXT ( 'configuration controlled 3d designs of mechanical parts and assemblies' ) ;
#248 = APPROVAL_STATUS ( 'not_yet_approved' ) ;
#249 = COORDINATED_UNIVERSAL_TIME_OFFSET ( 1, 0, .AHEAD. ) ;
#250 = ORIENTED_EDGE ( 'NONE', *, *, #119, .T. ) ;
#251 = AXIS2_PLACEMENT_3D ( 'NONE', #59, #11, #228 ) ;
#252 = ORIENTED_EDGE ( 'NONE', *, *, #147, .F. ) ;
#253 = ORIENTED_EDGE ( 'NONE', *, *, #172, .T. ) ;
#254 = CIRCLE ( 'NONE', #112, 1.600000000000000089 ) ;
#255 = ADVANCED_FACE ( 'NONE', ( #10 ), #77, .T. ) ;
ENDSEC;
END-ISO-10303-21;
