ISO-10303-21;
HEADER;
FILE_DESCRIPTION (( 'STEP AP203' ),
    '1' );
FILE_NAME ('18c9.STEP',
    '2023-02-12T11:19:45',
    ( '' ),
    ( '' ),
    'SwSTEP 2.0',
    'SolidWorks 2019',
    '' );
FILE_SCHEMA (( 'CONFIG_CONTROL_DESIGN' ));
ENDSEC;

DATA;
#1 = ORIENTED_EDGE ( 'NONE', *, *, #245, .T. ) ;
#2 = COORDINATED_UNIVERSAL_TIME_OFFSET ( 1, 0, .AHEAD. ) ;
#3 = VERTEX_POINT ( 'NONE', #122 ) ;
#4 = LINE ( 'NONE', #177, #178 ) ;
#5 = ORIENTED_EDGE ( 'NONE', *, *, #138, .F. ) ;
#6 = EDGE_CURVE ( 'NONE', #62, #3, #230, .T. ) ;
#7 = CARTESIAN_POINT ( 'NONE',  ( 0.000000000000000000, 0.000000000000000000, 5.000000000000000000 ) ) ;
#8 = DIRECTION ( 'NONE',  ( 1.000000000000000000, 0.000000000000000000, 0.000000000000000000 ) ) ;
#9 = UNCERTAINTY_MEASURE_WITH_UNIT (LENGTH_MEASURE( 1.000000000000000082E-05 ), #89, 'distance_accuracy_value', 'NONE');
#10 = DATE_AND_TIME ( #84, #136 ) ;
#11 = DIRECTION ( 'NONE',  ( 0.000000000000000000, 0.000000000000000000, 1.000000000000000000 ) ) ;
#12 =( NAMED_UNIT ( * ) PLANE_ANGLE_UNIT ( ) SI_UNIT ( $, .RADIAN. ) );
#13 = ORIENTED_EDGE ( 'NONE', *, *, #138, .T. ) ;
#14 = ADVANCED_FACE ( 'NONE', ( #102 ), #162, .T. ) ;
#15 = EDGE_LOOP ( 'NONE', ( #144, #13, #77, #226 ) ) ;
#16 = CARTESIAN_POINT ( 'NONE',  ( 4.000000000000000000, 4.898587196589412829E-16, 5.000000000000000000 ) ) ;
#17 = APPROVAL_DATE_TIME ( #101, #191 ) ;
#18 = DATE_AND_TIME ( #124, #195 ) ;
#19 = CARTESIAN_POINT ( 'NONE',  ( -7.000000000000000000, 0.000000000000000000, 5.000000000000000000 ) ) ;
#20 = PRODUCT_RELATED_PRODUCT_CATEGORY ( 'detail', '', ( #80 ) ) ;
#21 = PERSON_AND_ORGANIZATION ( #108, #43 ) ;
#22 = APPROVAL_STATUS ( 'not_yet_approved' ) ;
#23 = CIRCLE ( 'NONE', #69, 7.000000000000000000 ) ;
#24 = AXIS2_PLACEMENT_3D ( 'NONE', #155, #176, #113 ) ;
#25 = EDGE_CURVE ( 'NONE', #62, #194, #23, .T. ) ;
#26 = PRODUCT_DEFINITION_SHAPE ( 'NONE', 'NONE',  #111 ) ;
#27 = FACE_OUTER_BOUND ( 'NONE', #166, .T. ) ;
#28 = AXIS2_PLACEMENT_3D ( 'NONE', #240, #181, #42 ) ;
#29 = DIRECTION ( 'NONE',  ( -1.000000000000000000, 0.000000000000000000, 0.000000000000000000 ) ) ;
#30 = CARTESIAN_POINT ( 'NONE',  ( 0.000000000000000000, 0.000000000000000000, 250.0000000000000000 ) ) ;
#31 = VERTEX_POINT ( 'NONE', #16 ) ;
#32 = AXIS2_PLACEMENT_3D ( 'NONE', #58, #143, #204 ) ;
#33 = EDGE_CURVE ( 'NONE', #183, #41, #4, .T. ) ;
#34 = AXIS2_PLACEMENT_3D ( 'NONE', #216, #67, #250 ) ;
#35 = CC_DESIGN_APPROVAL ( #191, ( #83 ) ) ;
#36 = DIRECTION ( 'NONE',  ( 1.000000000000000000, 0.000000000000000000, -0.000000000000000000 ) ) ;
#37 = DIRECTION ( 'NONE',  ( 0.000000000000000000, 0.000000000000000000, 1.000000000000000000 ) ) ;
#38 = EDGE_LOOP ( 'NONE', ( #57, #73 ) ) ;
#39 = EDGE_LOOP ( 'NONE', ( #63, #157 ) ) ;
#40 = DATE_AND_TIME ( #137, #167 ) ;
#41 = VERTEX_POINT ( 'NONE', #233 ) ;
#42 = DIRECTION ( 'NONE',  ( 1.000000000000000000, 0.000000000000000000, 0.000000000000000000 ) ) ;
#43 = ORGANIZATION ( 'NEURÈENÝ', 'NEURÈENÝ', '' ) ;
#44 = DIRECTION ( 'NONE',  ( -0.000000000000000000, -0.000000000000000000, -1.000000000000000000 ) ) ;
#45 = ORIENTED_EDGE ( 'NONE', *, *, #252, .T. ) ;
#46 = DIRECTION ( 'NONE',  ( -0.000000000000000000, -0.000000000000000000, -1.000000000000000000 ) ) ;
#47 = VECTOR ( 'NONE', #235, 1000.000000000000000 ) ;
#48 = PLANE ( 'NONE',  #78 ) ;
#49 = AXIS2_PLACEMENT_3D ( 'NONE', #159, #197, #91 ) ;
#50 = MECHANICAL_CONTEXT ( 'NONE', #160, 'mechanical' ) ;
#51 = CC_DESIGN_DATE_AND_TIME_ASSIGNMENT ( #18, #232, ( #111 ) ) ;
#52 = PERSON_AND_ORGANIZATION ( #108, #43 ) ;
#53 = COORDINATED_UNIVERSAL_TIME_OFFSET ( 1, 0, .AHEAD. ) ;
#54 =( GEOMETRIC_REPRESENTATION_CONTEXT ( 3 ) GLOBAL_UNCERTAINTY_ASSIGNED_CONTEXT ( ( #9 ) ) GLOBAL_UNIT_ASSIGNED_CONTEXT ( ( #89, #12, #139 ) ) REPRESENTATION_CONTEXT ( 'NONE', 'WORKASPACE' ) );
#55 = COORDINATED_UNIVERSAL_TIME_OFFSET ( 1, 0, .AHEAD. ) ;
#56 = CIRCLE ( 'NONE', #231, 7.000000000000000000 ) ;
#57 = ORIENTED_EDGE ( 'NONE', *, *, #208, .F. ) ;
#58 = CARTESIAN_POINT ( 'NONE',  ( 0.000000000000000000, 0.000000000000000000, 0.000000000000000000 ) ) ;
#59 = DATE_TIME_ROLE ( 'classification_date' ) ;
#60 = ORIENTED_EDGE ( 'NONE', *, *, #245, .F. ) ;
#61 = PERSON_AND_ORGANIZATION ( #108, #43 ) ;
#62 = VERTEX_POINT ( 'NONE', #142 ) ;
#63 = ORIENTED_EDGE ( 'NONE', *, *, #129, .F. ) ;
#64 = ADVANCED_BREP_SHAPE_REPRESENTATION ( '18c9', ( #134, #24 ), #54 ) ;
#65 = CIRCLE ( 'NONE', #28, 7.000000000000000000 ) ;
#66 = DIRECTION ( 'NONE',  ( -0.000000000000000000, -0.000000000000000000, -1.000000000000000000 ) ) ;
#67 = DIRECTION ( 'NONE',  ( 0.000000000000000000, 0.000000000000000000, 1.000000000000000000 ) ) ;
#68 = CYLINDRICAL_SURFACE ( 'NONE', #92, 7.000000000000000000 ) ;
#69 = AXIS2_PLACEMENT_3D ( 'NONE', #94, #221, #200 ) ;
#70 = DIRECTION ( 'NONE',  ( 1.000000000000000000, 0.000000000000000000, 0.000000000000000000 ) ) ;
#71 = EDGE_CURVE ( 'NONE', #161, #31, #218, .T. ) ;
#72 = APPLICATION_PROTOCOL_DEFINITION ( 'international standard', 'config_control_design', 1994, #160 ) ;
#73 = ORIENTED_EDGE ( 'NONE', *, *, #96, .F. ) ;
#74 = DIRECTION ( 'NONE',  ( -0.000000000000000000, -0.000000000000000000, -1.000000000000000000 ) ) ;
#75 = LOCAL_TIME ( 12, 19, 45.00000000000000000, #55 ) ;
#76 = CALENDAR_DATE ( 2023, 12, 2 ) ;
#77 = ORIENTED_EDGE ( 'NONE', *, *, #96, .T. ) ;
#78 = AXIS2_PLACEMENT_3D ( 'NONE', #244, #106, #132 ) ;
#79 = PERSON_AND_ORGANIZATION ( #108, #43 ) ;
#80 = PRODUCT ( '18c9', '18c9', '', ( #50 ) ) ;
#81 = FACE_OUTER_BOUND ( 'NONE', #38, .T. ) ;
#82 = CLOSED_SHELL ( 'NONE', ( #213, #123, #223, #228, #175, #179, #14 ) ) ;
#83 = PRODUCT_DEFINITION_FORMATION_WITH_SPECIFIED_SOURCE ( 'LIBOVOLNÝ', '', #80, .NOT_KNOWN. ) ;
#84 = CALENDAR_DATE ( 2023, 12, 2 ) ;
#85 = FACE_OUTER_BOUND ( 'NONE', #227, .T. ) ;
#86 = DIRECTION ( 'NONE',  ( -1.000000000000000000, 0.000000000000000000, 0.000000000000000000 ) ) ;
#87 = CYLINDRICAL_SURFACE ( 'NONE', #199, 4.000000000000000000 ) ;
#88 = ORIENTED_EDGE ( 'NONE', *, *, #71, .T. ) ;
#89 =( LENGTH_UNIT ( ) NAMED_UNIT ( * ) SI_UNIT ( .MILLI., .METRE. ) );
#90 = CIRCLE ( 'NONE', #49, 4.000000000000000000 ) ;
#91 = DIRECTION ( 'NONE',  ( 1.000000000000000000, 0.000000000000000000, 0.000000000000000000 ) ) ;
#92 = AXIS2_PLACEMENT_3D ( 'NONE', #7, #46, #86 ) ;
#93 = PERSON_AND_ORGANIZATION_ROLE ( 'design_supplier' ) ;
#94 = CARTESIAN_POINT ( 'NONE',  ( 0.000000000000000000, 0.000000000000000000, 5.000000000000000000 ) ) ;
#95 = CARTESIAN_POINT ( 'NONE',  ( 0.000000000000000000, 0.000000000000000000, 250.0000000000000000 ) ) ;
#96 = EDGE_CURVE ( 'NONE', #215, #3, #169, .T. ) ;
#97 = ORIENTED_EDGE ( 'NONE', *, *, #172, .F. ) ;
#98 = CIRCLE ( 'NONE', #224, 4.000000000000000000 ) ;
#99 = SECURITY_CLASSIFICATION_LEVEL ( 'unclassified' ) ;
#100 = ORIENTED_EDGE ( 'NONE', *, *, #25, .F. ) ;
#101 = DATE_AND_TIME ( #163, #75 ) ;
#102 = FACE_OUTER_BOUND ( 'NONE', #187, .T. ) ;
#103 = DIRECTION ( 'NONE',  ( 1.000000000000000000, 0.000000000000000000, -0.000000000000000000 ) ) ;
#104 = CC_DESIGN_DATE_AND_TIME_ASSIGNMENT ( #236, #59, ( #114 ) ) ;
#105 = CARTESIAN_POINT ( 'NONE',  ( 0.000000000000000000, 0.000000000000000000, 5.000000000000000000 ) ) ;
#106 = DIRECTION ( 'NONE',  ( 0.000000000000000000, 0.000000000000000000, 1.000000000000000000 ) ) ;
#107 = CARTESIAN_POINT ( 'NONE',  ( 0.000000000000000000, 0.000000000000000000, 250.0000000000000000 ) ) ;
#108 = PERSON ( 'NEURÈENÝ', 'NEURÈENÝ', 'NEURÈENÝ', ('NEURÈENÝ'), ('NEURÈENÝ'), ('NEURÈENÝ') ) ;
#109 = APPROVAL_PERSON_ORGANIZATION ( #121, #191, #117 ) ;
#110 = APPROVAL_STATUS ( 'not_yet_approved' ) ;
#111 = PRODUCT_DEFINITION ( 'NEZNÁMÝ', '', #83, #210 ) ;
#112 = AXIS2_PLACEMENT_3D ( 'NONE', #154, #225, #103 ) ;
#113 = DIRECTION ( 'NONE',  ( 1.000000000000000000, 0.000000000000000000, 0.000000000000000000 ) ) ;
#114 = SECURITY_CLASSIFICATION ( '', '', #99 ) ;
#115 = PERSON_AND_ORGANIZATION_ROLE ( 'creator' ) ;
#116 = ORIENTED_EDGE ( 'NONE', *, *, #145, .T. ) ;
#117 = APPROVAL_ROLE ( '' ) ;
#118 = CARTESIAN_POINT ( 'NONE',  ( 4.000000000000000000, 4.898587196589412829E-16, 250.0000000000000000 ) ) ;
#119 = COORDINATED_UNIVERSAL_TIME_OFFSET ( 1, 0, .AHEAD. ) ;
#120 = CC_DESIGN_APPROVAL ( #206, ( #114 ) ) ;
#121 = PERSON_AND_ORGANIZATION ( #108, #43 ) ;
#122 = CARTESIAN_POINT ( 'NONE',  ( -7.000000000000000000, 0.000000000000000000, 0.000000000000000000 ) ) ;
#123 = ADVANCED_FACE ( 'NONE', ( #237 ), #68, .T. ) ;
#124 = CALENDAR_DATE ( 2023, 12, 2 ) ;
#125 = EDGE_LOOP ( 'NONE', ( #158, #60, #238, #192 ) ) ;
#126 = DIRECTION ( 'NONE',  ( 0.000000000000000000, 0.000000000000000000, 1.000000000000000000 ) ) ;
#127 = LOCAL_TIME ( 12, 19, 45.00000000000000000, #2 ) ;
#128 = DIRECTION ( 'NONE',  ( 0.000000000000000000, 0.000000000000000000, 1.000000000000000000 ) ) ;
#129 = EDGE_CURVE ( 'NONE', #41, #31, #251, .T. ) ;
#130 = DIRECTION ( 'NONE',  ( -1.000000000000000000, 0.000000000000000000, 0.000000000000000000 ) ) ;
#131 = CC_DESIGN_SECURITY_CLASSIFICATION ( #114, ( #83 ) ) ;
#132 = DIRECTION ( 'NONE',  ( 1.000000000000000000, 0.000000000000000000, -0.000000000000000000 ) ) ;
#133 = ORIENTED_EDGE ( 'NONE', *, *, #208, .T. ) ;
#134 = MANIFOLD_SOLID_BREP ( 'Pøidat vysunutím3', #82 ) ;
#135 = APPLICATION_PROTOCOL_DEFINITION ( 'international standard', 'config_control_design', 1994, #249 ) ;
#136 = LOCAL_TIME ( 12, 19, 45.00000000000000000, #211 ) ;
#137 = CALENDAR_DATE ( 2023, 12, 2 ) ;
#138 = EDGE_CURVE ( 'NONE', #194, #215, #198, .T. ) ;
#139 =( NAMED_UNIT ( * ) SI_UNIT ( $, .STERADIAN. ) SOLID_ANGLE_UNIT ( ) );
#140 = AXIS2_PLACEMENT_3D ( 'NONE', #107, #11, #70 ) ;
#141 = ORIENTED_EDGE ( 'NONE', *, *, #33, .F. ) ;
#142 = CARTESIAN_POINT ( 'NONE',  ( -7.000000000000000000, 0.000000000000000000, 5.000000000000000000 ) ) ;
#143 = DIRECTION ( 'NONE',  ( 0.000000000000000000, 0.000000000000000000, 1.000000000000000000 ) ) ;
#144 = ORIENTED_EDGE ( 'NONE', *, *, #145, .F. ) ;
#145 = EDGE_CURVE ( 'NONE', #194, #62, #65, .T. ) ;
#146 = APPROVAL_STATUS ( 'not_yet_approved' ) ;
#147 = DIRECTION ( 'NONE',  ( -0.000000000000000000, -0.000000000000000000, -1.000000000000000000 ) ) ;
#148 = SHAPE_DEFINITION_REPRESENTATION ( #26, #64 ) ;
#149 = APPROVAL ( #110, 'NEURÈENÝ' ) ;
#150 = CARTESIAN_POINT ( 'NONE',  ( 0.000000000000000000, 0.000000000000000000, 0.000000000000000000 ) ) ;
#151 = CARTESIAN_POINT ( 'NONE',  ( -4.000000000000000000, 0.000000000000000000, 250.0000000000000000 ) ) ;
#152 = PLANE ( 'NONE',  #112 ) ;
#153 = CYLINDRICAL_SURFACE ( 'NONE', #207, 7.000000000000000000 ) ;
#154 = CARTESIAN_POINT ( 'NONE',  ( 0.000000000000000000, 0.000000000000000000, 0.000000000000000000 ) ) ;
#155 = CARTESIAN_POINT ( 'NONE',  ( 0.000000000000000000, 0.000000000000000000, 0.000000000000000000 ) ) ;
#156 = CC_DESIGN_PERSON_AND_ORGANIZATION_ASSIGNMENT ( #165, #255, ( #114 ) ) ;
#157 = ORIENTED_EDGE ( 'NONE', *, *, #252, .F. ) ;
#158 = ORIENTED_EDGE ( 'NONE', *, *, #71, .F. ) ;
#159 = CARTESIAN_POINT ( 'NONE',  ( 0.000000000000000000, 0.000000000000000000, 5.000000000000000000 ) ) ;
#160 = APPLICATION_CONTEXT ( 'configuration controlled 3d designs of mechanical parts and assemblies' ) ;
#161 = VERTEX_POINT ( 'NONE', #201 ) ;
#162 = PLANE ( 'NONE',  #188 ) ;
#163 = CALENDAR_DATE ( 2023, 12, 2 ) ;
#164 = CC_DESIGN_PERSON_AND_ORGANIZATION_ASSIGNMENT ( #52, #193, ( #80 ) ) ;
#165 = PERSON_AND_ORGANIZATION ( #108, #43 ) ;
#166 = EDGE_LOOP ( 'NONE', ( #5, #100, #248, #133 ) ) ;
#167 = LOCAL_TIME ( 12, 19, 45.00000000000000000, #53 ) ;
#168 = DIRECTION ( 'NONE',  ( -1.000000000000000000, 0.000000000000000000, 0.000000000000000000 ) ) ;
#169 = CIRCLE ( 'NONE', #32, 7.000000000000000000 ) ;
#170 = CARTESIAN_POINT ( 'NONE',  ( 0.000000000000000000, 0.000000000000000000, 250.0000000000000000 ) ) ;
#171 = AXIS2_PLACEMENT_3D ( 'NONE', #170, #66, #168 ) ;
#172 = EDGE_CURVE ( 'NONE', #161, #183, #98, .T. ) ;
#173 = VECTOR ( 'NONE', #202, 1000.000000000000000 ) ;
#174 = ORIENTED_EDGE ( 'NONE', *, *, #25, .T. ) ;
#175 = ADVANCED_FACE ( 'NONE', ( #81 ), #152, .F. ) ;
#176 = DIRECTION ( 'NONE',  ( 0.000000000000000000, 0.000000000000000000, 1.000000000000000000 ) ) ;
#177 = CARTESIAN_POINT ( 'NONE',  ( -4.000000000000000000, 0.000000000000000000, 250.0000000000000000 ) ) ;
#178 = VECTOR ( 'NONE', #74, 1000.000000000000000 ) ;
#179 = ADVANCED_FACE ( 'NONE', ( #243 ), #186, .T. ) ;
#180 = APPROVAL_DATE_TIME ( #40, #149 ) ;
#181 = DIRECTION ( 'NONE',  ( 0.000000000000000000, 0.000000000000000000, 1.000000000000000000 ) ) ;
#182 = PERSON_AND_ORGANIZATION ( #108, #43 ) ;
#183 = VERTEX_POINT ( 'NONE', #151 ) ;
#184 = CARTESIAN_POINT ( 'NONE',  ( 7.000000000000000000, 8.572527594031473190E-16, 5.000000000000000000 ) ) ;
#185 = APPROVAL_PERSON_ORGANIZATION ( #61, #206, #220 ) ;
#186 = CYLINDRICAL_SURFACE ( 'NONE', #171, 4.000000000000000000 ) ;
#187 = EDGE_LOOP ( 'NONE', ( #1, #219 ) ) ;
#188 = AXIS2_PLACEMENT_3D ( 'NONE', #234, #37, #36 ) ;
#189 = DIRECTION ( 'NONE',  ( -0.000000000000000000, -0.000000000000000000, -1.000000000000000000 ) ) ;
#190 = CIRCLE ( 'NONE', #140, 4.000000000000000000 ) ;
#191 = APPROVAL ( #22, 'NEURÈENÝ' ) ;
#192 = ORIENTED_EDGE ( 'NONE', *, *, #129, .T. ) ;
#193 = PERSON_AND_ORGANIZATION_ROLE ( 'design_owner' ) ;
#194 = VERTEX_POINT ( 'NONE', #241 ) ;
#195 = LOCAL_TIME ( 12, 19, 45.00000000000000000, #119 ) ;
#196 = APPROVAL_ROLE ( '' ) ;
#197 = DIRECTION ( 'NONE',  ( 0.000000000000000000, 0.000000000000000000, 1.000000000000000000 ) ) ;
#198 = LINE ( 'NONE', #184, #47 ) ;
#199 = AXIS2_PLACEMENT_3D ( 'NONE', #30, #44, #130 ) ;
#200 = DIRECTION ( 'NONE',  ( 1.000000000000000000, 0.000000000000000000, 0.000000000000000000 ) ) ;
#201 = CARTESIAN_POINT ( 'NONE',  ( 4.000000000000000000, 4.898587196589412829E-16, 250.0000000000000000 ) ) ;
#202 = DIRECTION ( 'NONE',  ( -0.000000000000000000, -0.000000000000000000, -1.000000000000000000 ) ) ;
#203 = APPROVAL_PERSON_ORGANIZATION ( #214, #149, #196 ) ;
#204 = DIRECTION ( 'NONE',  ( 1.000000000000000000, 0.000000000000000000, 0.000000000000000000 ) ) ;
#205 = EDGE_LOOP ( 'NONE', ( #97, #88, #45, #141 ) ) ;
#206 = APPROVAL ( #146, 'NEURÈENÝ' ) ;
#207 = AXIS2_PLACEMENT_3D ( 'NONE', #105, #189, #29 ) ;
#208 = EDGE_CURVE ( 'NONE', #3, #215, #56, .T. ) ;
#209 = FACE_BOUND ( 'NONE', #39, .T. ) ;
#210 = DESIGN_CONTEXT ( 'detailed design', #249, 'design' ) ;
#211 = COORDINATED_UNIVERSAL_TIME_OFFSET ( 1, 0, .AHEAD. ) ;
#212 = CARTESIAN_POINT ( 'NONE',  ( 7.000000000000000000, 8.572527594031473190E-16, 0.000000000000000000 ) ) ;
#213 = ADVANCED_FACE ( 'NONE', ( #222 ), #87, .T. ) ;
#214 = PERSON_AND_ORGANIZATION ( #108, #43 ) ;
#215 = VERTEX_POINT ( 'NONE', #212 ) ;
#216 = CARTESIAN_POINT ( 'NONE',  ( 0.000000000000000000, 0.000000000000000000, 5.000000000000000000 ) ) ;
#217 = CC_DESIGN_PERSON_AND_ORGANIZATION_ASSIGNMENT ( #21, #115, ( #83 ) ) ;
#218 = LINE ( 'NONE', #118, #173 ) ;
#219 = ORIENTED_EDGE ( 'NONE', *, *, #172, .T. ) ;
#220 = APPROVAL_ROLE ( '' ) ;
#221 = DIRECTION ( 'NONE',  ( 0.000000000000000000, 0.000000000000000000, 1.000000000000000000 ) ) ;
#222 = FACE_OUTER_BOUND ( 'NONE', #205, .T. ) ;
#223 = ADVANCED_FACE ( 'NONE', ( #27 ), #153, .T. ) ;
#224 = AXIS2_PLACEMENT_3D ( 'NONE', #95, #126, #247 ) ;
#225 = DIRECTION ( 'NONE',  ( 0.000000000000000000, 0.000000000000000000, 1.000000000000000000 ) ) ;
#226 = ORIENTED_EDGE ( 'NONE', *, *, #6, .F. ) ;
#227 = EDGE_LOOP ( 'NONE', ( #174, #116 ) ) ;
#228 = ADVANCED_FACE ( 'NONE', ( #209, #85 ), #48, .T. ) ;
#229 = PERSON_AND_ORGANIZATION_ROLE ( 'creator' ) ;
#230 = LINE ( 'NONE', #19, #246 ) ;
#231 = AXIS2_PLACEMENT_3D ( 'NONE', #150, #128, #8 ) ;
#232 = DATE_TIME_ROLE ( 'creation_date' ) ;
#233 = CARTESIAN_POINT ( 'NONE',  ( -4.000000000000000000, 0.000000000000000000, 5.000000000000000000 ) ) ;
#234 = CARTESIAN_POINT ( 'NONE',  ( 0.000000000000000000, 0.000000000000000000, 250.0000000000000000 ) ) ;
#235 = DIRECTION ( 'NONE',  ( -0.000000000000000000, -0.000000000000000000, -1.000000000000000000 ) ) ;
#236 = DATE_AND_TIME ( #76, #127 ) ;
#237 = FACE_OUTER_BOUND ( 'NONE', #15, .T. ) ;
#238 = ORIENTED_EDGE ( 'NONE', *, *, #33, .T. ) ;
#239 = APPROVAL_DATE_TIME ( #10, #206 ) ;
#240 = CARTESIAN_POINT ( 'NONE',  ( 0.000000000000000000, 0.000000000000000000, 5.000000000000000000 ) ) ;
#241 = CARTESIAN_POINT ( 'NONE',  ( 7.000000000000000000, 8.572527594031473190E-16, 5.000000000000000000 ) ) ;
#242 = CC_DESIGN_PERSON_AND_ORGANIZATION_ASSIGNMENT ( #182, #93, ( #83 ) ) ;
#243 = FACE_OUTER_BOUND ( 'NONE', #125, .T. ) ;
#244 = CARTESIAN_POINT ( 'NONE',  ( 0.000000000000000000, 0.000000000000000000, 5.000000000000000000 ) ) ;
#245 = EDGE_CURVE ( 'NONE', #183, #161, #190, .T. ) ;
#246 = VECTOR ( 'NONE', #147, 1000.000000000000000 ) ;
#247 = DIRECTION ( 'NONE',  ( 1.000000000000000000, 0.000000000000000000, 0.000000000000000000 ) ) ;
#248 = ORIENTED_EDGE ( 'NONE', *, *, #6, .T. ) ;
#249 = APPLICATION_CONTEXT ( 'configuration controlled 3d designs of mechanical parts and assemblies' ) ;
#250 = DIRECTION ( 'NONE',  ( 1.000000000000000000, 0.000000000000000000, 0.000000000000000000 ) ) ;
#251 = CIRCLE ( 'NONE', #34, 4.000000000000000000 ) ;
#252 = EDGE_CURVE ( 'NONE', #31, #41, #90, .T. ) ;
#253 = CC_DESIGN_APPROVAL ( #149, ( #111 ) ) ;
#254 = CC_DESIGN_PERSON_AND_ORGANIZATION_ASSIGNMENT ( #79, #229, ( #111 ) ) ;
#255 = PERSON_AND_ORGANIZATION_ROLE ( 'classification_officer' ) ;
ENDSEC;
END-ISO-10303-21;
