ISO-10303-21;
HEADER;
FILE_DESCRIPTION (( 'STEP AP203' ),
    '1' );
FILE_NAME ('c1eb.STEP',
    '2023-02-12T11:42:19',
    ( '' ),
    ( '' ),
    'SwSTEP 2.0',
    'SolidWorks 2019',
    '' );
FILE_SCHEMA (( 'CONFIG_CONTROL_DESIGN' ));
ENDSEC;

DATA;
#1 = EDGE_LOOP ( 'NONE', ( #20, #238 ) ) ;
#2 = EDGE_CURVE ( 'NONE', #254, #3, #52, .T. ) ;
#3 = VERTEX_POINT ( 'NONE', #175 ) ;
#4 = ORIENTED_EDGE ( 'NONE', *, *, #229, .T. ) ;
#5 = DIRECTION ( 'NONE',  ( 0.000000000000000000, 0.000000000000000000, 1.000000000000000000 ) ) ;
#6 = DIRECTION ( 'NONE',  ( 0.000000000000000000, 0.000000000000000000, 1.000000000000000000 ) ) ;
#7 = ORGANIZATION ( 'NEURÈENÝ', 'NEURÈENÝ', '' ) ;
#8 = DIRECTION ( 'NONE',  ( -0.000000000000000000, -0.000000000000000000, -1.000000000000000000 ) ) ;
#9 = EDGE_CURVE ( 'NONE', #198, #89, #34, .T. ) ;
#10 = DIRECTION ( 'NONE',  ( -1.000000000000000000, 0.000000000000000000, 0.000000000000000000 ) ) ;
#11 = AXIS2_PLACEMENT_3D ( 'NONE', #44, #191, #193 ) ;
#12 = APPROVAL_ROLE ( '' ) ;
#13 = CARTESIAN_POINT ( 'NONE',  ( 2.750000000000000000, 3.367778697655221012E-16, 3.000000000000000000 ) ) ;
#14 = DIRECTION ( 'NONE',  ( 1.000000000000000000, 0.000000000000000000, 0.000000000000000000 ) ) ;
#15 = UNCERTAINTY_MEASURE_WITH_UNIT (LENGTH_MEASURE( 1.000000000000000082E-05 ), #148, 'distance_accuracy_value', 'NONE');
#16 = CALENDAR_DATE ( 2023, 12, 2 ) ;
#17 = PLANE ( 'NONE',  #57 ) ;
#18 = PRODUCT_DEFINITION_FORMATION_WITH_SPECIFIED_SOURCE ( 'LIBOVOLNÝ', '', #28, .NOT_KNOWN. ) ;
#19 = EDGE_CURVE ( 'NONE', #3, #201, #131, .T. ) ;
#20 = ORIENTED_EDGE ( 'NONE', *, *, #229, .F. ) ;
#21 = DIRECTION ( 'NONE',  ( -0.000000000000000000, -0.000000000000000000, -1.000000000000000000 ) ) ;
#22 = ORIENTED_EDGE ( 'NONE', *, *, #2, .T. ) ;
#23 = ADVANCED_FACE ( 'NONE', ( #111 ), #17, .T. ) ;
#24 = FACE_OUTER_BOUND ( 'NONE', #30, .T. ) ;
#25 = DIRECTION ( 'NONE',  ( 0.000000000000000000, 0.000000000000000000, 1.000000000000000000 ) ) ;
#26 = APPROVAL_PERSON_ORGANIZATION ( #27, #207, #12 ) ;
#27 = PERSON_AND_ORGANIZATION ( #45, #7 ) ;
#28 = PRODUCT ( 'c1eb', 'c1eb', '', ( #152 ) ) ;
#29 = DATE_AND_TIME ( #253, #65 ) ;
#30 = EDGE_LOOP ( 'NONE', ( #239, #139, #117, #236 ) ) ;
#31 = CARTESIAN_POINT ( 'NONE',  ( 0.000000000000000000, 0.000000000000000000, 3.000000000000000000 ) ) ;
#32 = LOCAL_TIME ( 12, 42, 19.00000000000000000, #33 ) ;
#33 = COORDINATED_UNIVERSAL_TIME_OFFSET ( 1, 0, .AHEAD. ) ;
#34 = LINE ( 'NONE', #153, #255 ) ;
#35 = CARTESIAN_POINT ( 'NONE',  ( -2.750000000000000000, 0.000000000000000000, 160.0000000000000000 ) ) ;
#36 =( GEOMETRIC_REPRESENTATION_CONTEXT ( 3 ) GLOBAL_UNCERTAINTY_ASSIGNED_CONTEXT ( ( #15 ) ) GLOBAL_UNIT_ASSIGNED_CONTEXT ( ( #148, #172, #245 ) ) REPRESENTATION_CONTEXT ( 'NONE', 'WORKASPACE' ) );
#37 = CIRCLE ( 'NONE', #69, 5.000000000000000000 ) ;
#38 = LINE ( 'NONE', #120, #209 ) ;
#39 = DIRECTION ( 'NONE',  ( 0.000000000000000000, 0.000000000000000000, 1.000000000000000000 ) ) ;
#40 = CARTESIAN_POINT ( 'NONE',  ( 0.000000000000000000, 0.000000000000000000, 3.000000000000000000 ) ) ;
#41 = EDGE_CURVE ( 'NONE', #254, #234, #137, .T. ) ;
#42 = DIRECTION ( 'NONE',  ( -1.000000000000000000, 0.000000000000000000, 0.000000000000000000 ) ) ;
#43 = CIRCLE ( 'NONE', #166, 5.000000000000000000 ) ;
#44 = CARTESIAN_POINT ( 'NONE',  ( 0.000000000000000000, 0.000000000000000000, 3.000000000000000000 ) ) ;
#45 = PERSON ( 'NEURÈENÝ', 'NEURÈENÝ', 'NEURÈENÝ', ('NEURÈENÝ'), ('NEURÈENÝ'), ('NEURÈENÝ') ) ;
#46 = CARTESIAN_POINT ( 'NONE',  ( 0.000000000000000000, 0.000000000000000000, 0.000000000000000000 ) ) ;
#47 = LOCAL_TIME ( 12, 42, 19.00000000000000000, #160 ) ;
#48 = CALENDAR_DATE ( 2023, 12, 2 ) ;
#49 = DIRECTION ( 'NONE',  ( -0.000000000000000000, -0.000000000000000000, -1.000000000000000000 ) ) ;
#50 = PERSON_AND_ORGANIZATION_ROLE ( 'creator' ) ;
#51 = EDGE_LOOP ( 'NONE', ( #114, #162, #22, #155 ) ) ;
#52 = LINE ( 'NONE', #35, #104 ) ;
#53 = PERSON_AND_ORGANIZATION ( #45, #7 ) ;
#54 = ORIENTED_EDGE ( 'NONE', *, *, #41, .T. ) ;
#55 = EDGE_LOOP ( 'NONE', ( #54, #222 ) ) ;
#56 = CC_DESIGN_APPROVAL ( #151, ( #18 ) ) ;
#57 = AXIS2_PLACEMENT_3D ( 'NONE', #92, #112, #179 ) ;
#58 = EDGE_CURVE ( 'NONE', #89, #159, #37, .T. ) ;
#59 = CARTESIAN_POINT ( 'NONE',  ( 0.000000000000000000, 0.000000000000000000, 0.000000000000000000 ) ) ;
#60 = CIRCLE ( 'NONE', #87, 5.000000000000000000 ) ;
#61 = DIRECTION ( 'NONE',  ( -0.000000000000000000, -0.000000000000000000, -1.000000000000000000 ) ) ;
#62 = DIRECTION ( 'NONE',  ( 1.000000000000000000, 0.000000000000000000, -0.000000000000000000 ) ) ;
#63 = ADVANCED_FACE ( 'NONE', ( #83 ), #182, .T. ) ;
#64 = DIRECTION ( 'NONE',  ( -1.000000000000000000, 0.000000000000000000, 0.000000000000000000 ) ) ;
#65 = LOCAL_TIME ( 12, 42, 19.00000000000000000, #90 ) ;
#66 = CC_DESIGN_DATE_AND_TIME_ASSIGNMENT ( #115, #223, ( #118 ) ) ;
#67 = CARTESIAN_POINT ( 'NONE',  ( -2.750000000000000000, 0.000000000000000000, 160.0000000000000000 ) ) ;
#68 = EDGE_LOOP ( 'NONE', ( #221, #140, #77, #94 ) ) ;
#69 = AXIS2_PLACEMENT_3D ( 'NONE', #59, #5, #78 ) ;
#70 = ORIENTED_EDGE ( 'NONE', *, *, #19, .F. ) ;
#71 = APPROVAL_ROLE ( '' ) ;
#72 = CARTESIAN_POINT ( 'NONE',  ( 0.000000000000000000, 0.000000000000000000, 160.0000000000000000 ) ) ;
#73 = PERSON_AND_ORGANIZATION ( #45, #7 ) ;
#74 = ORIENTED_EDGE ( 'NONE', *, *, #105, .T. ) ;
#75 = CC_DESIGN_PERSON_AND_ORGANIZATION_ASSIGNMENT ( #233, #134, ( #18 ) ) ;
#76 = DATE_AND_TIME ( #129, #183 ) ;
#77 = ORIENTED_EDGE ( 'NONE', *, *, #58, .T. ) ;
#78 = DIRECTION ( 'NONE',  ( 1.000000000000000000, 0.000000000000000000, 0.000000000000000000 ) ) ;
#79 = CARTESIAN_POINT ( 'NONE',  ( 0.000000000000000000, 0.000000000000000000, 160.0000000000000000 ) ) ;
#80 = PRODUCT_DEFINITION ( 'NEZNÁMÝ', '', #18, #180 ) ;
#81 = AXIS2_PLACEMENT_3D ( 'NONE', #79, #25, #244 ) ;
#82 = DIRECTION ( 'NONE',  ( 1.000000000000000000, 0.000000000000000000, 0.000000000000000000 ) ) ;
#83 = FACE_OUTER_BOUND ( 'NONE', #51, .T. ) ;
#84 = APPROVAL_PERSON_ORGANIZATION ( #219, #151, #71 ) ;
#85 = CARTESIAN_POINT ( 'NONE',  ( 5.000000000000000000, 6.123233995736766282E-16, 3.000000000000000000 ) ) ;
#86 = EDGE_CURVE ( 'NONE', #205, #198, #43, .T. ) ;
#87 = AXIS2_PLACEMENT_3D ( 'NONE', #227, #217, #14 ) ;
#88 = DIRECTION ( 'NONE',  ( 0.000000000000000000, 0.000000000000000000, 1.000000000000000000 ) ) ;
#89 = VERTEX_POINT ( 'NONE', #142 ) ;
#90 = COORDINATED_UNIVERSAL_TIME_OFFSET ( 1, 0, .AHEAD. ) ;
#91 = LOCAL_TIME ( 12, 42, 19.00000000000000000, #107 ) ;
#92 = CARTESIAN_POINT ( 'NONE',  ( 0.000000000000000000, 0.000000000000000000, 160.0000000000000000 ) ) ;
#93 = ORIENTED_EDGE ( 'NONE', *, *, #130, .F. ) ;
#94 = ORIENTED_EDGE ( 'NONE', *, *, #105, .F. ) ;
#95 = PRODUCT_RELATED_PRODUCT_CATEGORY ( 'detail', '', ( #28 ) ) ;
#96 = ORIENTED_EDGE ( 'NONE', *, *, #9, .F. ) ;
#97 = DIRECTION ( 'NONE',  ( 1.000000000000000000, 0.000000000000000000, 0.000000000000000000 ) ) ;
#98 = DIRECTION ( 'NONE',  ( -0.000000000000000000, -0.000000000000000000, -1.000000000000000000 ) ) ;
#99 = DIRECTION ( 'NONE',  ( 1.000000000000000000, 0.000000000000000000, 0.000000000000000000 ) ) ;
#100 = AXIS2_PLACEMENT_3D ( 'NONE', #190, #249, #42 ) ;
#101 = EDGE_CURVE ( 'NONE', #198, #205, #181, .T. ) ;
#102 = DIRECTION ( 'NONE',  ( 0.000000000000000000, 0.000000000000000000, 1.000000000000000000 ) ) ;
#103 = APPLICATION_PROTOCOL_DEFINITION ( 'international standard', 'config_control_design', 1994, #161 ) ;
#104 = VECTOR ( 'NONE', #21, 1000.000000000000000 ) ;
#105 = EDGE_CURVE ( 'NONE', #205, #159, #164, .T. ) ;
#106 = PLANE ( 'NONE',  #11 ) ;
#107 = COORDINATED_UNIVERSAL_TIME_OFFSET ( 1, 0, .AHEAD. ) ;
#108 = PRODUCT_DEFINITION_SHAPE ( 'NONE', 'NONE',  #80 ) ;
#109 = CARTESIAN_POINT ( 'NONE',  ( 0.000000000000000000, 0.000000000000000000, 0.000000000000000000 ) ) ;
#110 = APPROVAL_STATUS ( 'not_yet_approved' ) ;
#111 = FACE_OUTER_BOUND ( 'NONE', #55, .T. ) ;
#112 = DIRECTION ( 'NONE',  ( 0.000000000000000000, 0.000000000000000000, 1.000000000000000000 ) ) ;
#113 = DATE_AND_TIME ( #48, #32 ) ;
#114 = ORIENTED_EDGE ( 'NONE', *, *, #171, .F. ) ;
#115 = DATE_AND_TIME ( #16, #47 ) ;
#116 = ORIENTED_EDGE ( 'NONE', *, *, #86, .T. ) ;
#117 = ORIENTED_EDGE ( 'NONE', *, *, #130, .T. ) ;
#118 = SECURITY_CLASSIFICATION ( '', '', #176 ) ;
#119 = CC_DESIGN_PERSON_AND_ORGANIZATION_ASSIGNMENT ( #230, #127, ( #28 ) ) ;
#120 = CARTESIAN_POINT ( 'NONE',  ( 2.750000000000000000, 3.367778697655221012E-16, 160.0000000000000000 ) ) ;
#121 = DIRECTION ( 'NONE',  ( -1.000000000000000000, 0.000000000000000000, 0.000000000000000000 ) ) ;
#122 = CC_DESIGN_APPROVAL ( #143, ( #118 ) ) ;
#123 = CARTESIAN_POINT ( 'NONE',  ( -5.000000000000000000, 0.000000000000000000, 3.000000000000000000 ) ) ;
#124 = ADVANCED_FACE ( 'NONE', ( #24 ), #144, .T. ) ;
#125 = AXIS2_PLACEMENT_3D ( 'NONE', #109, #88, #62 ) ;
#126 = CYLINDRICAL_SURFACE ( 'NONE', #100, 5.000000000000000000 ) ;
#127 = PERSON_AND_ORGANIZATION_ROLE ( 'design_owner' ) ;
#128 = DIRECTION ( 'NONE',  ( -0.000000000000000000, -0.000000000000000000, -1.000000000000000000 ) ) ;
#129 = CALENDAR_DATE ( 2023, 12, 2 ) ;
#130 = EDGE_CURVE ( 'NONE', #201, #3, #211, .T. ) ;
#131 = CIRCLE ( 'NONE', #154, 2.750000000000000000 ) ;
#132 = APPROVAL_DATE_TIME ( #29, #143 ) ;
#133 = DIRECTION ( 'NONE',  ( 1.000000000000000000, 0.000000000000000000, 0.000000000000000000 ) ) ;
#134 = PERSON_AND_ORGANIZATION_ROLE ( 'design_supplier' ) ;
#135 = APPROVAL_DATE_TIME ( #76, #151 ) ;
#136 = EDGE_LOOP ( 'NONE', ( #116, #251 ) ) ;
#137 = CIRCLE ( 'NONE', #241, 2.750000000000000000 ) ;
#138 = APPROVAL_STATUS ( 'not_yet_approved' ) ;
#139 = ORIENTED_EDGE ( 'NONE', *, *, #171, .T. ) ;
#140 = ORIENTED_EDGE ( 'NONE', *, *, #9, .T. ) ;
#141 = DIRECTION ( 'NONE',  ( -0.000000000000000000, -0.000000000000000000, -1.000000000000000000 ) ) ;
#142 = CARTESIAN_POINT ( 'NONE',  ( 5.000000000000000000, 6.123233995736766282E-16, 0.000000000000000000 ) ) ;
#143 = APPROVAL ( #110, 'NEURÈENÝ' ) ;
#144 = CYLINDRICAL_SURFACE ( 'NONE', #169, 2.750000000000000000 ) ;
#145 = APPLICATION_CONTEXT ( 'configuration controlled 3d designs of mechanical parts and assemblies' ) ;
#146 = CARTESIAN_POINT ( 'NONE',  ( 0.000000000000000000, 0.000000000000000000, 160.0000000000000000 ) ) ;
#147 = FACE_OUTER_BOUND ( 'NONE', #68, .T. ) ;
#148 =( LENGTH_UNIT ( ) NAMED_UNIT ( * ) SI_UNIT ( .MILLI., .METRE. ) );
#149 = CIRCLE ( 'NONE', #81, 2.750000000000000000 ) ;
#150 = DATE_AND_TIME ( #173, #91 ) ;
#151 = APPROVAL ( #138, 'NEURÈENÝ' ) ;
#152 = MECHANICAL_CONTEXT ( 'NONE', #145, 'mechanical' ) ;
#153 = CARTESIAN_POINT ( 'NONE',  ( 5.000000000000000000, 6.123233995736766282E-16, 3.000000000000000000 ) ) ;
#154 = AXIS2_PLACEMENT_3D ( 'NONE', #31, #220, #133 ) ;
#155 = ORIENTED_EDGE ( 'NONE', *, *, #19, .T. ) ;
#156 = CC_DESIGN_PERSON_AND_ORGANIZATION_ASSIGNMENT ( #235, #197, ( #80 ) ) ;
#157 = PERSON_AND_ORGANIZATION ( #45, #7 ) ;
#158 = ORIENTED_EDGE ( 'NONE', *, *, #86, .F. ) ;
#159 = VERTEX_POINT ( 'NONE', #212 ) ;
#160 = COORDINATED_UNIVERSAL_TIME_OFFSET ( 1, 0, .AHEAD. ) ;
#161 = APPLICATION_CONTEXT ( 'configuration controlled 3d designs of mechanical parts and assemblies' ) ;
#162 = ORIENTED_EDGE ( 'NONE', *, *, #41, .F. ) ;
#163 = EDGE_CURVE ( 'NONE', #234, #254, #149, .T. ) ;
#164 = LINE ( 'NONE', #123, #174 ) ;
#165 = CARTESIAN_POINT ( 'NONE',  ( 0.000000000000000000, 0.000000000000000000, 160.0000000000000000 ) ) ;
#166 = AXIS2_PLACEMENT_3D ( 'NONE', #184, #39, #99 ) ;
#167 = CARTESIAN_POINT ( 'NONE',  ( 0.000000000000000000, 0.000000000000000000, 3.000000000000000000 ) ) ;
#168 = AXIS2_PLACEMENT_3D ( 'NONE', #210, #6, #243 ) ;
#169 = AXIS2_PLACEMENT_3D ( 'NONE', #165, #141, #121 ) ;
#170 = CYLINDRICAL_SURFACE ( 'NONE', #228, 5.000000000000000000 ) ;
#171 = EDGE_CURVE ( 'NONE', #234, #201, #38, .T. ) ;
#172 =( NAMED_UNIT ( * ) PLANE_ANGLE_UNIT ( ) SI_UNIT ( $, .RADIAN. ) );
#173 = CALENDAR_DATE ( 2023, 12, 2 ) ;
#174 = VECTOR ( 'NONE', #8, 1000.000000000000000 ) ;
#175 = CARTESIAN_POINT ( 'NONE',  ( -2.750000000000000000, 0.000000000000000000, 3.000000000000000000 ) ) ;
#176 = SECURITY_CLASSIFICATION_LEVEL ( 'unclassified' ) ;
#177 = ADVANCED_FACE ( 'NONE', ( #208 ), #214, .F. ) ;
#178 = CLOSED_SHELL ( 'NONE', ( #124, #188, #247, #225, #177, #63, #23 ) ) ;
#179 = DIRECTION ( 'NONE',  ( 1.000000000000000000, 0.000000000000000000, -0.000000000000000000 ) ) ;
#180 = DESIGN_CONTEXT ( 'detailed design', #161, 'design' ) ;
#181 = CIRCLE ( 'NONE', #199, 5.000000000000000000 ) ;
#182 = CYLINDRICAL_SURFACE ( 'NONE', #224, 2.750000000000000000 ) ;
#183 = LOCAL_TIME ( 12, 42, 19.00000000000000000, #237 ) ;
#184 = CARTESIAN_POINT ( 'NONE',  ( 0.000000000000000000, 0.000000000000000000, 3.000000000000000000 ) ) ;
#185 = CC_DESIGN_DATE_AND_TIME_ASSIGNMENT ( #113, #250, ( #80 ) ) ;
#186 = APPLICATION_PROTOCOL_DEFINITION ( 'international standard', 'config_control_design', 1994, #145 ) ;
#187 = MANIFOLD_SOLID_BREP ( 'Pøidat vysunutím3', #178 ) ;
#188 = ADVANCED_FACE ( 'NONE', ( #147 ), #126, .T. ) ;
#189 = APPROVAL_STATUS ( 'not_yet_approved' ) ;
#190 = CARTESIAN_POINT ( 'NONE',  ( 0.000000000000000000, 0.000000000000000000, 3.000000000000000000 ) ) ;
#191 = DIRECTION ( 'NONE',  ( 0.000000000000000000, 0.000000000000000000, 1.000000000000000000 ) ) ;
#192 = CC_DESIGN_PERSON_AND_ORGANIZATION_ASSIGNMENT ( #53, #195, ( #118 ) ) ;
#193 = DIRECTION ( 'NONE',  ( 1.000000000000000000, 0.000000000000000000, -0.000000000000000000 ) ) ;
#194 = APPROVAL_ROLE ( '' ) ;
#195 = PERSON_AND_ORGANIZATION_ROLE ( 'classification_officer' ) ;
#196 = EDGE_LOOP ( 'NONE', ( #70, #93 ) ) ;
#197 = PERSON_AND_ORGANIZATION_ROLE ( 'creator' ) ;
#198 = VERTEX_POINT ( 'NONE', #85 ) ;
#199 = AXIS2_PLACEMENT_3D ( 'NONE', #167, #206, #82 ) ;
#200 = SHAPE_DEFINITION_REPRESENTATION ( #108, #204 ) ;
#201 = VERTEX_POINT ( 'NONE', #13 ) ;
#202 = EDGE_LOOP ( 'NONE', ( #96, #158, #74, #4 ) ) ;
#203 = AXIS2_PLACEMENT_3D ( 'NONE', #46, #102, #218 ) ;
#204 = ADVANCED_BREP_SHAPE_REPRESENTATION ( 'c1eb', ( #187, #203 ), #36 ) ;
#205 = VERTEX_POINT ( 'NONE', #213 ) ;
#206 = DIRECTION ( 'NONE',  ( 0.000000000000000000, 0.000000000000000000, 1.000000000000000000 ) ) ;
#207 = APPROVAL ( #189, 'NEURÈENÝ' ) ;
#208 = FACE_OUTER_BOUND ( 'NONE', #1, .T. ) ;
#209 = VECTOR ( 'NONE', #61, 1000.000000000000000 ) ;
#210 = CARTESIAN_POINT ( 'NONE',  ( 0.000000000000000000, 0.000000000000000000, 3.000000000000000000 ) ) ;
#211 = CIRCLE ( 'NONE', #168, 2.750000000000000000 ) ;
#212 = CARTESIAN_POINT ( 'NONE',  ( -5.000000000000000000, 0.000000000000000000, 0.000000000000000000 ) ) ;
#213 = CARTESIAN_POINT ( 'NONE',  ( -5.000000000000000000, 0.000000000000000000, 3.000000000000000000 ) ) ;
#214 = PLANE ( 'NONE',  #125 ) ;
#215 = FACE_OUTER_BOUND ( 'NONE', #202, .T. ) ;
#216 = CC_DESIGN_PERSON_AND_ORGANIZATION_ASSIGNMENT ( #73, #50, ( #18 ) ) ;
#217 = DIRECTION ( 'NONE',  ( 0.000000000000000000, 0.000000000000000000, 1.000000000000000000 ) ) ;
#218 = DIRECTION ( 'NONE',  ( 1.000000000000000000, 0.000000000000000000, 0.000000000000000000 ) ) ;
#219 = PERSON_AND_ORGANIZATION ( #45, #7 ) ;
#220 = DIRECTION ( 'NONE',  ( 0.000000000000000000, 0.000000000000000000, 1.000000000000000000 ) ) ;
#221 = ORIENTED_EDGE ( 'NONE', *, *, #101, .F. ) ;
#222 = ORIENTED_EDGE ( 'NONE', *, *, #163, .T. ) ;
#223 = DATE_TIME_ROLE ( 'classification_date' ) ;
#224 = AXIS2_PLACEMENT_3D ( 'NONE', #146, #98, #10 ) ;
#225 = ADVANCED_FACE ( 'NONE', ( #226, #246 ), #106, .T. ) ;
#226 = FACE_BOUND ( 'NONE', #196, .T. ) ;
#227 = CARTESIAN_POINT ( 'NONE',  ( 0.000000000000000000, 0.000000000000000000, 0.000000000000000000 ) ) ;
#228 = AXIS2_PLACEMENT_3D ( 'NONE', #40, #128, #64 ) ;
#229 = EDGE_CURVE ( 'NONE', #159, #89, #60, .T. ) ;
#230 = PERSON_AND_ORGANIZATION ( #45, #7 ) ;
#231 = APPROVAL_DATE_TIME ( #150, #207 ) ;
#232 = CARTESIAN_POINT ( 'NONE',  ( 2.750000000000000000, 3.367778697655221012E-16, 160.0000000000000000 ) ) ;
#233 = PERSON_AND_ORGANIZATION ( #45, #7 ) ;
#234 = VERTEX_POINT ( 'NONE', #232 ) ;
#235 = PERSON_AND_ORGANIZATION ( #45, #7 ) ;
#236 = ORIENTED_EDGE ( 'NONE', *, *, #2, .F. ) ;
#237 = COORDINATED_UNIVERSAL_TIME_OFFSET ( 1, 0, .AHEAD. ) ;
#238 = ORIENTED_EDGE ( 'NONE', *, *, #58, .F. ) ;
#239 = ORIENTED_EDGE ( 'NONE', *, *, #163, .F. ) ;
#240 = CC_DESIGN_APPROVAL ( #207, ( #80 ) ) ;
#241 = AXIS2_PLACEMENT_3D ( 'NONE', #72, #242, #97 ) ;
#242 = DIRECTION ( 'NONE',  ( 0.000000000000000000, 0.000000000000000000, 1.000000000000000000 ) ) ;
#243 = DIRECTION ( 'NONE',  ( 1.000000000000000000, 0.000000000000000000, 0.000000000000000000 ) ) ;
#244 = DIRECTION ( 'NONE',  ( 1.000000000000000000, 0.000000000000000000, 0.000000000000000000 ) ) ;
#245 =( NAMED_UNIT ( * ) SI_UNIT ( $, .STERADIAN. ) SOLID_ANGLE_UNIT ( ) );
#246 = FACE_OUTER_BOUND ( 'NONE', #136, .T. ) ;
#247 = ADVANCED_FACE ( 'NONE', ( #215 ), #170, .T. ) ;
#248 = APPROVAL_PERSON_ORGANIZATION ( #157, #143, #194 ) ;
#249 = DIRECTION ( 'NONE',  ( -0.000000000000000000, -0.000000000000000000, -1.000000000000000000 ) ) ;
#250 = DATE_TIME_ROLE ( 'creation_date' ) ;
#251 = ORIENTED_EDGE ( 'NONE', *, *, #101, .T. ) ;
#252 = CC_DESIGN_SECURITY_CLASSIFICATION ( #118, ( #18 ) ) ;
#253 = CALENDAR_DATE ( 2023, 12, 2 ) ;
#254 = VERTEX_POINT ( 'NONE', #67 ) ;
#255 = VECTOR ( 'NONE', #49, 1000.000000000000000 ) ;
ENDSEC;
END-ISO-10303-21;
