ISO-10303-21;
HEADER;
FILE_DESCRIPTION (( 'STEP AP203' ),
    '1' );
FILE_NAME ('eb93.STEP',
    '2023-02-12T11:21:46',
    ( '' ),
    ( '' ),
    'SwSTEP 2.0',
    'SolidWorks 2019',
    '' );
FILE_SCHEMA (( 'CONFIG_CONTROL_DESIGN' ));
ENDSEC;

DATA;
#1 = AXIS2_PLACEMENT_3D ( 'NONE', #98, #79, #77 ) ;
#2 = CARTESIAN_POINT ( 'NONE',  ( -6.000000000000000888, 0.000000000000000000, 5.000000000000000000 ) ) ;
#3 = CARTESIAN_POINT ( 'NONE',  ( 0.000000000000000000, 0.000000000000000000, 5.000000000000000000 ) ) ;
#4 = AXIS2_PLACEMENT_3D ( 'NONE', #3, #165, #66 ) ;
#5 = CC_DESIGN_DATE_AND_TIME_ASSIGNMENT ( #13, #114, ( #240 ) ) ;
#6 = LOCAL_TIME ( 12, 21, 46.00000000000000000, #228 ) ;
#7 = ORIENTED_EDGE ( 'NONE', *, *, #92, .F. ) ;
#8 = EDGE_LOOP ( 'NONE', ( #7, #146 ) ) ;
#9 = LINE ( 'NONE', #74, #52 ) ;
#10 = AXIS2_PLACEMENT_3D ( 'NONE', #188, #91, #171 ) ;
#11 = ORIENTED_EDGE ( 'NONE', *, *, #227, .T. ) ;
#12 = DIRECTION ( 'NONE',  ( -0.000000000000000000, -0.000000000000000000, -1.000000000000000000 ) ) ;
#13 = DATE_AND_TIME ( #194, #17 ) ;
#14 = APPROVAL ( #129, 'NEURÈENÝ' ) ;
#15 = CIRCLE ( 'NONE', #198, 6.000000000000000888 ) ;
#16 = APPROVAL_ROLE ( '' ) ;
#17 = LOCAL_TIME ( 12, 21, 46.00000000000000000, #223 ) ;
#18 = DIRECTION ( 'NONE',  ( 1.000000000000000000, 0.000000000000000000, 0.000000000000000000 ) ) ;
#19 = DATE_AND_TIME ( #60, #214 ) ;
#20 = APPROVAL_DATE_TIME ( #19, #14 ) ;
#21 = ORGANIZATION ( 'NEURÈENÝ', 'NEURÈENÝ', '' ) ;
#22 = ADVANCED_FACE ( 'NONE', ( #96 ), #38, .T. ) ;
#23 = AXIS2_PLACEMENT_3D ( 'NONE', #204, #241, #18 ) ;
#24 = PERSON_AND_ORGANIZATION ( #196, #21 ) ;
#25 = CARTESIAN_POINT ( 'NONE',  ( 0.000000000000000000, 0.000000000000000000, 0.000000000000000000 ) ) ;
#26 = EDGE_CURVE ( 'NONE', #143, #184, #160, .T. ) ;
#27 = EDGE_LOOP ( 'NONE', ( #82, #179 ) ) ;
#28 = CC_DESIGN_PERSON_AND_ORGANIZATION_ASSIGNMENT ( #24, #182, ( #206 ) ) ;
#29 = EDGE_CURVE ( 'NONE', #143, #126, #193, .T. ) ;
#30 = DIRECTION ( 'NONE',  ( 1.000000000000000000, 0.000000000000000000, 0.000000000000000000 ) ) ;
#31 = APPLICATION_PROTOCOL_DEFINITION ( 'international standard', 'config_control_design', 1994, #180 ) ;
#32 = PLANE ( 'NONE',  #10 ) ;
#33 = APPROVAL ( #197, 'NEURÈENÝ' ) ;
#34 = CARTESIAN_POINT ( 'NONE',  ( 6.000000000000000888, 7.347880794884120722E-16, 5.000000000000000000 ) ) ;
#35 = VERTEX_POINT ( 'NONE', #36 ) ;
#36 = CARTESIAN_POINT ( 'NONE',  ( 6.000000000000000888, 7.347880794884120722E-16, 0.000000000000000000 ) ) ;
#37 = AXIS2_PLACEMENT_3D ( 'NONE', #140, #209, #167 ) ;
#38 = PLANE ( 'NONE',  #243 ) ;
#39 = CARTESIAN_POINT ( 'NONE',  ( 0.000000000000000000, 0.000000000000000000, 5.000000000000000000 ) ) ;
#40 = AXIS2_PLACEMENT_3D ( 'NONE', #150, #237, #132 ) ;
#41 = APPROVAL_DATE_TIME ( #173, #33 ) ;
#42 = LOCAL_TIME ( 12, 21, 46.00000000000000000, #144 ) ;
#43 = DIRECTION ( 'NONE',  ( 1.000000000000000000, 0.000000000000000000, 0.000000000000000000 ) ) ;
#44 = EDGE_LOOP ( 'NONE', ( #107, #73, #128, #168 ) ) ;
#45 = PERSON_AND_ORGANIZATION_ROLE ( 'creator' ) ;
#46 = DIRECTION ( 'NONE',  ( -0.000000000000000000, -0.000000000000000000, -1.000000000000000000 ) ) ;
#47 = LOCAL_TIME ( 12, 21, 46.00000000000000000, #166 ) ;
#48 = APPROVAL_ROLE ( '' ) ;
#49 = DIRECTION ( 'NONE',  ( -1.000000000000000000, 0.000000000000000000, 0.000000000000000000 ) ) ;
#50 = DATE_TIME_ROLE ( 'classification_date' ) ;
#51 = PRODUCT_DEFINITION_SHAPE ( 'NONE', 'NONE',  #240 ) ;
#52 = VECTOR ( 'NONE', #235, 1000.000000000000000 ) ;
#53 = VERTEX_POINT ( 'NONE', #105 ) ;
#54 = CYLINDRICAL_SURFACE ( 'NONE', #40, 6.000000000000000888 ) ;
#55 = PERSON_AND_ORGANIZATION ( #196, #21 ) ;
#56 = FACE_OUTER_BOUND ( 'NONE', #44, .T. ) ;
#57 = ORIENTED_EDGE ( 'NONE', *, *, #26, .T. ) ;
#58 = FACE_OUTER_BOUND ( 'NONE', #90, .T. ) ;
#59 = CC_DESIGN_PERSON_AND_ORGANIZATION_ASSIGNMENT ( #195, #192, ( #240 ) ) ;
#60 = CALENDAR_DATE ( 2023, 12, 2 ) ;
#61 = ADVANCED_FACE ( 'NONE', ( #76, #110 ), #32, .T. ) ;
#62 = SHAPE_DEFINITION_REPRESENTATION ( #51, #157 ) ;
#63 = EDGE_CURVE ( 'NONE', #184, #53, #9, .T. ) ;
#64 = CARTESIAN_POINT ( 'NONE',  ( 0.000000000000000000, 0.000000000000000000, 200.0000000000000000 ) ) ;
#65 = ORIENTED_EDGE ( 'NONE', *, *, #202, .T. ) ;
#66 = DIRECTION ( 'NONE',  ( -1.000000000000000000, 0.000000000000000000, 0.000000000000000000 ) ) ;
#67 = EDGE_LOOP ( 'NONE', ( #239, #250, #102, #252 ) ) ;
#68 = DATE_AND_TIME ( #121, #47 ) ;
#69 = DIRECTION ( 'NONE',  ( 1.000000000000000000, 0.000000000000000000, 0.000000000000000000 ) ) ;
#70 = ORIENTED_EDGE ( 'NONE', *, *, #227, .F. ) ;
#71 = PRODUCT_RELATED_PRODUCT_CATEGORY ( 'detail', '', ( #141 ) ) ;
#72 = DIRECTION ( 'NONE',  ( 1.000000000000000000, 0.000000000000000000, 0.000000000000000000 ) ) ;
#73 = ORIENTED_EDGE ( 'NONE', *, *, #161, .F. ) ;
#74 = CARTESIAN_POINT ( 'NONE',  ( -3.750000000000000000, 0.000000000000000000, 200.0000000000000000 ) ) ;
#75 = VECTOR ( 'NONE', #156, 1000.000000000000000 ) ;
#76 = FACE_BOUND ( 'NONE', #27, .T. ) ;
#77 = DIRECTION ( 'NONE',  ( 1.000000000000000000, 0.000000000000000000, -0.000000000000000000 ) ) ;
#78 = CIRCLE ( 'NONE', #23, 6.000000000000000888 ) ;
#79 = DIRECTION ( 'NONE',  ( 0.000000000000000000, 0.000000000000000000, 1.000000000000000000 ) ) ;
#80 = ADVANCED_FACE ( 'NONE', ( #56 ), #54, .T. ) ;
#81 = CIRCLE ( 'NONE', #226, 6.000000000000000888 ) ;
#82 = ORIENTED_EDGE ( 'NONE', *, *, #238, .F. ) ;
#83 = CC_DESIGN_APPROVAL ( #216, ( #164 ) ) ;
#84 = VERTEX_POINT ( 'NONE', #34 ) ;
#85 = PERSON_AND_ORGANIZATION_ROLE ( 'classification_officer' ) ;
#86 = VERTEX_POINT ( 'NONE', #189 ) ;
#87 = ADVANCED_FACE ( 'NONE', ( #93 ), #191, .F. ) ;
#88 = EDGE_LOOP ( 'NONE', ( #163, #203 ) ) ;
#89 = CC_DESIGN_APPROVAL ( #33, ( #206 ) ) ;
#90 = EDGE_LOOP ( 'NONE', ( #123, #70, #233, #170 ) ) ;
#91 = DIRECTION ( 'NONE',  ( 0.000000000000000000, 0.000000000000000000, 1.000000000000000000 ) ) ;
#92 = EDGE_CURVE ( 'NONE', #154, #35, #78, .T. ) ;
#93 = FACE_OUTER_BOUND ( 'NONE', #8, .T. ) ;
#94 = AXIS2_PLACEMENT_3D ( 'NONE', #106, #236, #108 ) ;
#95 = EDGE_CURVE ( 'NONE', #86, #154, #158, .T. ) ;
#96 = FACE_OUTER_BOUND ( 'NONE', #217, .T. ) ;
#97 = DIRECTION ( 'NONE',  ( -1.000000000000000000, 0.000000000000000000, 0.000000000000000000 ) ) ;
#98 = CARTESIAN_POINT ( 'NONE',  ( 0.000000000000000000, 0.000000000000000000, 0.000000000000000000 ) ) ;
#99 = CC_DESIGN_APPROVAL ( #14, ( #240 ) ) ;
#100 = CYLINDRICAL_SURFACE ( 'NONE', #4, 6.000000000000000888 ) ;
#101 = DIRECTION ( 'NONE',  ( 0.000000000000000000, 0.000000000000000000, 1.000000000000000000 ) ) ;
#102 = ORIENTED_EDGE ( 'NONE', *, *, #229, .T. ) ;
#103 = DIRECTION ( 'NONE',  ( -0.000000000000000000, -0.000000000000000000, -1.000000000000000000 ) ) ;
#104 = ORIENTED_EDGE ( 'NONE', *, *, #135, .T. ) ;
#105 = CARTESIAN_POINT ( 'NONE',  ( -3.750000000000000000, 0.000000000000000000, 5.000000000000000000 ) ) ;
#106 = CARTESIAN_POINT ( 'NONE',  ( 0.000000000000000000, 0.000000000000000000, 0.000000000000000000 ) ) ;
#107 = ORIENTED_EDGE ( 'NONE', *, *, #135, .F. ) ;
#108 = DIRECTION ( 'NONE',  ( 1.000000000000000000, 0.000000000000000000, 0.000000000000000000 ) ) ;
#109 = VECTOR ( 'NONE', #200, 1000.000000000000000 ) ;
#110 = FACE_OUTER_BOUND ( 'NONE', #88, .T. ) ;
#111 = DESIGN_CONTEXT ( 'detailed design', #138, 'design' ) ;
#112 = ORIENTED_EDGE ( 'NONE', *, *, #95, .F. ) ;
#113 = CARTESIAN_POINT ( 'NONE',  ( 0.000000000000000000, 0.000000000000000000, 200.0000000000000000 ) ) ;
#114 = DATE_TIME_ROLE ( 'creation_date' ) ;
#115 = CC_DESIGN_DATE_AND_TIME_ASSIGNMENT ( #68, #50, ( #164 ) ) ;
#116 = LINE ( 'NONE', #120, #109 ) ;
#117 = CIRCLE ( 'NONE', #199, 3.750000000000000000 ) ;
#118 = CARTESIAN_POINT ( 'NONE',  ( -6.000000000000000888, 0.000000000000000000, 0.000000000000000000 ) ) ;
#119 = EDGE_CURVE ( 'NONE', #84, #86, #81, .T. ) ;
#120 = CARTESIAN_POINT ( 'NONE',  ( 6.000000000000000888, 7.347880794884120722E-16, 5.000000000000000000 ) ) ;
#121 = CALENDAR_DATE ( 2023, 12, 2 ) ;
#122 = DIRECTION ( 'NONE',  ( 0.000000000000000000, 0.000000000000000000, 1.000000000000000000 ) ) ;
#123 = ORIENTED_EDGE ( 'NONE', *, *, #29, .F. ) ;
#124 = VECTOR ( 'NONE', #12, 1000.000000000000000 ) ;
#125 = APPROVAL_PERSON_ORGANIZATION ( #176, #33, #16 ) ;
#126 = VERTEX_POINT ( 'NONE', #224 ) ;
#127 = DIRECTION ( 'NONE',  ( 1.000000000000000000, 0.000000000000000000, 0.000000000000000000 ) ) ;
#128 = ORIENTED_EDGE ( 'NONE', *, *, #95, .T. ) ;
#129 = APPROVAL_STATUS ( 'not_yet_approved' ) ;
#130 = DIRECTION ( 'NONE',  ( 0.000000000000000000, 0.000000000000000000, 1.000000000000000000 ) ) ;
#131 = AXIS2_PLACEMENT_3D ( 'NONE', #211, #183, #249 ) ;
#132 = DIRECTION ( 'NONE',  ( -1.000000000000000000, 0.000000000000000000, 0.000000000000000000 ) ) ;
#133 = MECHANICAL_CONTEXT ( 'NONE', #180, 'mechanical' ) ;
#134 = CIRCLE ( 'NONE', #131, 3.750000000000000000 ) ;
#135 = EDGE_CURVE ( 'NONE', #84, #35, #116, .T. ) ;
#136 = CYLINDRICAL_SURFACE ( 'NONE', #254, 3.750000000000000000 ) ;
#137 = CARTESIAN_POINT ( 'NONE',  ( 3.750000000000000000, 4.592425496802573972E-16, 200.0000000000000000 ) ) ;
#138 = APPLICATION_CONTEXT ( 'configuration controlled 3d designs of mechanical parts and assemblies' ) ;
#139 = ADVANCED_FACE ( 'NONE', ( #58 ), #136, .T. ) ;
#140 = CARTESIAN_POINT ( 'NONE',  ( 0.000000000000000000, 0.000000000000000000, 5.000000000000000000 ) ) ;
#141 = PRODUCT ( 'eb93', 'eb93', '', ( #133 ) ) ;
#142 = CARTESIAN_POINT ( 'NONE',  ( 0.000000000000000000, 0.000000000000000000, 200.0000000000000000 ) ) ;
#143 = VERTEX_POINT ( 'NONE', #137 ) ;
#144 = COORDINATED_UNIVERSAL_TIME_OFFSET ( 1, 0, .AHEAD. ) ;
#145 = CARTESIAN_POINT ( 'NONE',  ( 0.000000000000000000, 0.000000000000000000, 5.000000000000000000 ) ) ;
#146 = ORIENTED_EDGE ( 'NONE', *, *, #202, .F. ) ;
#147 = PERSON_AND_ORGANIZATION ( #196, #21 ) ;
#148 = CARTESIAN_POINT ( 'NONE',  ( 3.750000000000000000, 4.592425496802573972E-16, 200.0000000000000000 ) ) ;
#149 = APPROVAL_PERSON_ORGANIZATION ( #178, #216, #48 ) ;
#150 = CARTESIAN_POINT ( 'NONE',  ( 0.000000000000000000, 0.000000000000000000, 5.000000000000000000 ) ) ;
#151 = CARTESIAN_POINT ( 'NONE',  ( 0.000000000000000000, 0.000000000000000000, 200.0000000000000000 ) ) ;
#152 = APPLICATION_PROTOCOL_DEFINITION ( 'international standard', 'config_control_design', 1994, #138 ) ;
#153 = DIRECTION ( 'NONE',  ( 1.000000000000000000, 0.000000000000000000, -0.000000000000000000 ) ) ;
#154 = VERTEX_POINT ( 'NONE', #118 ) ;
#155 = CIRCLE ( 'NONE', #247, 3.750000000000000000 ) ;
#156 = DIRECTION ( 'NONE',  ( -0.000000000000000000, -0.000000000000000000, -1.000000000000000000 ) ) ;
#157 = ADVANCED_BREP_SHAPE_REPRESENTATION ( 'eb93', ( #186, #94 ), #222 ) ;
#158 = LINE ( 'NONE', #2, #75 ) ;
#159 = DIRECTION ( 'NONE',  ( 0.000000000000000000, 0.000000000000000000, 1.000000000000000000 ) ) ;
#160 = CIRCLE ( 'NONE', #221, 3.750000000000000000 ) ;
#161 = EDGE_CURVE ( 'NONE', #86, #84, #213, .T. ) ;
#162 = CC_DESIGN_PERSON_AND_ORGANIZATION_ASSIGNMENT ( #230, #85, ( #164 ) ) ;
#163 = ORIENTED_EDGE ( 'NONE', *, *, #161, .T. ) ;
#164 = SECURITY_CLASSIFICATION ( '', '', #231 ) ;
#165 = DIRECTION ( 'NONE',  ( -0.000000000000000000, -0.000000000000000000, -1.000000000000000000 ) ) ;
#166 = COORDINATED_UNIVERSAL_TIME_OFFSET ( 1, 0, .AHEAD. ) ;
#167 = DIRECTION ( 'NONE',  ( 1.000000000000000000, 0.000000000000000000, 0.000000000000000000 ) ) ;
#168 = ORIENTED_EDGE ( 'NONE', *, *, #92, .T. ) ;
#169 =( LENGTH_UNIT ( ) NAMED_UNIT ( * ) SI_UNIT ( .MILLI., .METRE. ) );
#170 = ORIENTED_EDGE ( 'NONE', *, *, #238, .T. ) ;
#171 = DIRECTION ( 'NONE',  ( 1.000000000000000000, 0.000000000000000000, -0.000000000000000000 ) ) ;
#172 = UNCERTAINTY_MEASURE_WITH_UNIT (LENGTH_MEASURE( 1.000000000000000082E-05 ), #169, 'distance_accuracy_value', 'NONE');
#173 = DATE_AND_TIME ( #225, #6 ) ;
#174 = CC_DESIGN_PERSON_AND_ORGANIZATION_ASSIGNMENT ( #201, #45, ( #206 ) ) ;
#175 = ADVANCED_FACE ( 'NONE', ( #245 ), #207, .T. ) ;
#176 = PERSON_AND_ORGANIZATION ( #196, #21 ) ;
#177 = APPROVAL_DATE_TIME ( #232, #216 ) ;
#178 = PERSON_AND_ORGANIZATION ( #196, #21 ) ;
#179 = ORIENTED_EDGE ( 'NONE', *, *, #229, .F. ) ;
#180 = APPLICATION_CONTEXT ( 'configuration controlled 3d designs of mechanical parts and assemblies' ) ;
#181 = CC_DESIGN_SECURITY_CLASSIFICATION ( #164, ( #206 ) ) ;
#182 = PERSON_AND_ORGANIZATION_ROLE ( 'design_supplier' ) ;
#183 = DIRECTION ( 'NONE',  ( 0.000000000000000000, 0.000000000000000000, 1.000000000000000000 ) ) ;
#184 = VERTEX_POINT ( 'NONE', #215 ) ;
#185 = CALENDAR_DATE ( 2023, 12, 2 ) ;
#186 = MANIFOLD_SOLID_BREP ( 'Pøidat vysunutím3', #212 ) ;
#187 = DIRECTION ( 'NONE',  ( 0.000000000000000000, 0.000000000000000000, 1.000000000000000000 ) ) ;
#188 = CARTESIAN_POINT ( 'NONE',  ( 0.000000000000000000, 0.000000000000000000, 5.000000000000000000 ) ) ;
#189 = CARTESIAN_POINT ( 'NONE',  ( -6.000000000000000888, 0.000000000000000000, 5.000000000000000000 ) ) ;
#190 = ORIENTED_EDGE ( 'NONE', *, *, #119, .F. ) ;
#191 = PLANE ( 'NONE',  #1 ) ;
#192 = PERSON_AND_ORGANIZATION_ROLE ( 'creator' ) ;
#193 = LINE ( 'NONE', #148, #124 ) ;
#194 = CALENDAR_DATE ( 2023, 12, 2 ) ;
#195 = PERSON_AND_ORGANIZATION ( #196, #21 ) ;
#196 = PERSON ( 'NEURÈENÝ', 'NEURÈENÝ', 'NEURÈENÝ', ('NEURÈENÝ'), ('NEURÈENÝ'), ('NEURÈENÝ') ) ;
#197 = APPROVAL_STATUS ( 'not_yet_approved' ) ;
#198 = AXIS2_PLACEMENT_3D ( 'NONE', #25, #122, #69 ) ;
#199 = AXIS2_PLACEMENT_3D ( 'NONE', #142, #101, #72 ) ;
#200 = DIRECTION ( 'NONE',  ( -0.000000000000000000, -0.000000000000000000, -1.000000000000000000 ) ) ;
#201 = PERSON_AND_ORGANIZATION ( #196, #21 ) ;
#202 = EDGE_CURVE ( 'NONE', #35, #154, #15, .T. ) ;
#203 = ORIENTED_EDGE ( 'NONE', *, *, #119, .T. ) ;
#204 = CARTESIAN_POINT ( 'NONE',  ( 0.000000000000000000, 0.000000000000000000, 0.000000000000000000 ) ) ;
#205 = CC_DESIGN_PERSON_AND_ORGANIZATION_ASSIGNMENT ( #147, #255, ( #141 ) ) ;
#206 = PRODUCT_DEFINITION_FORMATION_WITH_SPECIFIED_SOURCE ( 'LIBOVOLNÝ', '', #141, .NOT_KNOWN. ) ;
#207 = CYLINDRICAL_SURFACE ( 'NONE', #246, 3.750000000000000000 ) ;
#208 = APPROVAL_STATUS ( 'not_yet_approved' ) ;
#209 = DIRECTION ( 'NONE',  ( 0.000000000000000000, 0.000000000000000000, 1.000000000000000000 ) ) ;
#210 = ADVANCED_FACE ( 'NONE', ( #248 ), #100, .T. ) ;
#211 = CARTESIAN_POINT ( 'NONE',  ( 0.000000000000000000, 0.000000000000000000, 5.000000000000000000 ) ) ;
#212 = CLOSED_SHELL ( 'NONE', ( #175, #210, #80, #61, #87, #139, #22 ) ) ;
#213 = CIRCLE ( 'NONE', #37, 6.000000000000000888 ) ;
#214 = LOCAL_TIME ( 12, 21, 46.00000000000000000, #242 ) ;
#215 = CARTESIAN_POINT ( 'NONE',  ( -3.750000000000000000, 0.000000000000000000, 200.0000000000000000 ) ) ;
#216 = APPROVAL ( #208, 'NEURÈENÝ' ) ;
#217 = EDGE_LOOP ( 'NONE', ( #11, #57 ) ) ;
#218 =( NAMED_UNIT ( * ) SI_UNIT ( $, .STERADIAN. ) SOLID_ANGLE_UNIT ( ) );
#219 = DIRECTION ( 'NONE',  ( 0.000000000000000000, 0.000000000000000000, 1.000000000000000000 ) ) ;
#220 = CARTESIAN_POINT ( 'NONE',  ( 0.000000000000000000, 0.000000000000000000, 200.0000000000000000 ) ) ;
#221 = AXIS2_PLACEMENT_3D ( 'NONE', #220, #219, #30 ) ;
#222 =( GEOMETRIC_REPRESENTATION_CONTEXT ( 3 ) GLOBAL_UNCERTAINTY_ASSIGNED_CONTEXT ( ( #172 ) ) GLOBAL_UNIT_ASSIGNED_CONTEXT ( ( #169, #251, #218 ) ) REPRESENTATION_CONTEXT ( 'NONE', 'WORKASPACE' ) );
#223 = COORDINATED_UNIVERSAL_TIME_OFFSET ( 1, 0, .AHEAD. ) ;
#224 = CARTESIAN_POINT ( 'NONE',  ( 3.750000000000000000, 4.592425496802573972E-16, 5.000000000000000000 ) ) ;
#225 = CALENDAR_DATE ( 2023, 12, 2 ) ;
#226 = AXIS2_PLACEMENT_3D ( 'NONE', #39, #159, #43 ) ;
#227 = EDGE_CURVE ( 'NONE', #184, #143, #117, .T. ) ;
#228 = COORDINATED_UNIVERSAL_TIME_OFFSET ( 1, 0, .AHEAD. ) ;
#229 = EDGE_CURVE ( 'NONE', #126, #53, #134, .T. ) ;
#230 = PERSON_AND_ORGANIZATION ( #196, #21 ) ;
#231 = SECURITY_CLASSIFICATION_LEVEL ( 'unclassified' ) ;
#232 = DATE_AND_TIME ( #185, #42 ) ;
#233 = ORIENTED_EDGE ( 'NONE', *, *, #63, .T. ) ;
#234 = APPROVAL_ROLE ( '' ) ;
#235 = DIRECTION ( 'NONE',  ( -0.000000000000000000, -0.000000000000000000, -1.000000000000000000 ) ) ;
#236 = DIRECTION ( 'NONE',  ( 0.000000000000000000, 0.000000000000000000, 1.000000000000000000 ) ) ;
#237 = DIRECTION ( 'NONE',  ( -0.000000000000000000, -0.000000000000000000, -1.000000000000000000 ) ) ;
#238 = EDGE_CURVE ( 'NONE', #53, #126, #155, .T. ) ;
#239 = ORIENTED_EDGE ( 'NONE', *, *, #26, .F. ) ;
#240 = PRODUCT_DEFINITION ( 'NEZNÁMÝ', '', #206, #111 ) ;
#241 = DIRECTION ( 'NONE',  ( 0.000000000000000000, 0.000000000000000000, 1.000000000000000000 ) ) ;
#242 = COORDINATED_UNIVERSAL_TIME_OFFSET ( 1, 0, .AHEAD. ) ;
#243 = AXIS2_PLACEMENT_3D ( 'NONE', #151, #130, #153 ) ;
#244 = APPROVAL_PERSON_ORGANIZATION ( #55, #14, #234 ) ;
#245 = FACE_OUTER_BOUND ( 'NONE', #67, .T. ) ;
#246 = AXIS2_PLACEMENT_3D ( 'NONE', #64, #103, #49 ) ;
#247 = AXIS2_PLACEMENT_3D ( 'NONE', #145, #187, #127 ) ;
#248 = FACE_OUTER_BOUND ( 'NONE', #253, .T. ) ;
#249 = DIRECTION ( 'NONE',  ( 1.000000000000000000, 0.000000000000000000, 0.000000000000000000 ) ) ;
#250 = ORIENTED_EDGE ( 'NONE', *, *, #29, .T. ) ;
#251 =( NAMED_UNIT ( * ) PLANE_ANGLE_UNIT ( ) SI_UNIT ( $, .RADIAN. ) );
#252 = ORIENTED_EDGE ( 'NONE', *, *, #63, .F. ) ;
#253 = EDGE_LOOP ( 'NONE', ( #190, #104, #65, #112 ) ) ;
#254 = AXIS2_PLACEMENT_3D ( 'NONE', #113, #46, #97 ) ;
#255 = PERSON_AND_ORGANIZATION_ROLE ( 'design_owner' ) ;
ENDSEC;
END-ISO-10303-21;
