ISO-10303-21;
HEADER;
FILE_DESCRIPTION (( 'STEP AP203' ),
    '1' );
FILE_NAME ('e69f.STEP',
    '2023-02-12T12:23:49',
    ( '' ),
    ( '' ),
    'SwSTEP 2.0',
    'SolidWorks 2019',
    '' );
FILE_SCHEMA (( 'CONFIG_CONTROL_DESIGN' ));
ENDSEC;

DATA;
#1 = DIRECTION ( 'NONE',  ( -0.000000000000000000, -0.000000000000000000, -1.000000000000000000 ) ) ;
#2 = CARTESIAN_POINT ( 'NONE',  ( 1.000000000000000000, 1.224646799147353207E-16, 2.000000000000000000 ) ) ;
#3 = EDGE_CURVE ( 'NONE', #92, #142, #247, .T. ) ;
#4 = AXIS2_PLACEMENT_3D ( 'NONE', #153, #185, #88 ) ;
#5 = DIRECTION ( 'NONE',  ( -0.000000000000000000, -0.000000000000000000, -1.000000000000000000 ) ) ;
#6 = DIRECTION ( 'NONE',  ( 0.000000000000000000, 0.000000000000000000, 1.000000000000000000 ) ) ;
#7 = APPROVAL_ROLE ( '' ) ;
#8 = AXIS2_PLACEMENT_3D ( 'NONE', #141, #5, #192 ) ;
#9 =( NAMED_UNIT ( * ) SI_UNIT ( $, .STERADIAN. ) SOLID_ANGLE_UNIT ( ) );
#10 = APPROVAL_PERSON_ORGANIZATION ( #231, #188, #7 ) ;
#11 = DIRECTION ( 'NONE',  ( -0.000000000000000000, -0.000000000000000000, -1.000000000000000000 ) ) ;
#12 = ORGANIZATION ( 'NEURÈENÝ', 'NEURÈENÝ', '' ) ;
#13 = DIRECTION ( 'NONE',  ( -0.000000000000000000, -0.000000000000000000, -1.000000000000000000 ) ) ;
#14 = ORIENTED_EDGE ( 'NONE', *, *, #184, .F. ) ;
#15 = UNCERTAINTY_MEASURE_WITH_UNIT (LENGTH_MEASURE( 1.000000000000000082E-05 ), #148, 'distance_accuracy_value', 'NONE');
#16 = CIRCLE ( 'NONE', #111, 1.000000000000000000 ) ;
#17 = DIRECTION ( 'NONE',  ( -1.000000000000000000, 0.000000000000000000, 0.000000000000000000 ) ) ;
#18 = CARTESIAN_POINT ( 'NONE',  ( 0.000000000000000000, 0.000000000000000000, 2.000000000000000000 ) ) ;
#19 = CC_DESIGN_DATE_AND_TIME_ASSIGNMENT ( #237, #181, ( #159 ) ) ;
#20 = CARTESIAN_POINT ( 'NONE',  ( -2.000000000000000000, 0.000000000000000000, 2.000000000000000000 ) ) ;
#21 = DIRECTION ( 'NONE',  ( 0.000000000000000000, 0.000000000000000000, 1.000000000000000000 ) ) ;
#22 = AXIS2_PLACEMENT_3D ( 'NONE', #38, #104, #102 ) ;
#23 = DATE_AND_TIME ( #98, #129 ) ;
#24 = VERTEX_POINT ( 'NONE', #160 ) ;
#25 = AXIS2_PLACEMENT_3D ( 'NONE', #157, #226, #115 ) ;
#26 = CARTESIAN_POINT ( 'NONE',  ( 0.000000000000000000, 0.000000000000000000, 2.000000000000000000 ) ) ;
#27 = PERSON_AND_ORGANIZATION_ROLE ( 'classification_officer' ) ;
#28 = PERSON_AND_ORGANIZATION ( #179, #12 ) ;
#29 = EDGE_CURVE ( 'NONE', #195, #24, #171, .T. ) ;
#30 = CARTESIAN_POINT ( 'NONE',  ( 0.000000000000000000, 0.000000000000000000, 2.000000000000000000 ) ) ;
#31 = APPROVAL_STATUS ( 'not_yet_approved' ) ;
#32 = DIRECTION ( 'NONE',  ( 0.000000000000000000, 0.000000000000000000, 1.000000000000000000 ) ) ;
#33 = EDGE_CURVE ( 'NONE', #53, #250, #85, .T. ) ;
#34 = PLANE ( 'NONE',  #22 ) ;
#35 = EDGE_LOOP ( 'NONE', ( #39, #81, #74, #87 ) ) ;
#36 = DESIGN_CONTEXT ( 'detailed design', #225, 'design' ) ;
#37 = AXIS2_PLACEMENT_3D ( 'NONE', #40, #21, #100 ) ;
#38 = CARTESIAN_POINT ( 'NONE',  ( 0.000000000000000000, 0.000000000000000000, 125.0000000000000000 ) ) ;
#39 = ORIENTED_EDGE ( 'NONE', *, *, #167, .F. ) ;
#40 = CARTESIAN_POINT ( 'NONE',  ( 0.000000000000000000, 0.000000000000000000, 2.000000000000000000 ) ) ;
#41 = EDGE_CURVE ( 'NONE', #246, #56, #228, .T. ) ;
#42 = ORIENTED_EDGE ( 'NONE', *, *, #3, .F. ) ;
#43 = PLANE ( 'NONE',  #151 ) ;
#44 = ORIENTED_EDGE ( 'NONE', *, *, #235, .F. ) ;
#45 = CC_DESIGN_PERSON_AND_ORGANIZATION_ASSIGNMENT ( #221, #49, ( #89 ) ) ;
#46 = DIRECTION ( 'NONE',  ( 0.000000000000000000, 0.000000000000000000, 1.000000000000000000 ) ) ;
#47 = CC_DESIGN_SECURITY_CLASSIFICATION ( #105, ( #89 ) ) ;
#48 = PERSON_AND_ORGANIZATION_ROLE ( 'creator' ) ;
#49 = PERSON_AND_ORGANIZATION_ROLE ( 'design_supplier' ) ;
#50 = ORIENTED_EDGE ( 'NONE', *, *, #201, .T. ) ;
#51 = EDGE_CURVE ( 'NONE', #56, #246, #117, .T. ) ;
#52 = COORDINATED_UNIVERSAL_TIME_OFFSET ( 1, 0, .AHEAD. ) ;
#53 = VERTEX_POINT ( 'NONE', #113 ) ;
#54 = FACE_OUTER_BOUND ( 'NONE', #248, .T. ) ;
#55 = DIRECTION ( 'NONE',  ( 0.000000000000000000, 0.000000000000000000, 1.000000000000000000 ) ) ;
#56 = VERTEX_POINT ( 'NONE', #95 ) ;
#57 = CC_DESIGN_APPROVAL ( #70, ( #159 ) ) ;
#58 = APPROVAL_DATE_TIME ( #23, #70 ) ;
#59 = CARTESIAN_POINT ( 'NONE',  ( 0.000000000000000000, 0.000000000000000000, 125.0000000000000000 ) ) ;
#60 = CC_DESIGN_PERSON_AND_ORGANIZATION_ASSIGNMENT ( #28, #48, ( #89 ) ) ;
#61 = FACE_OUTER_BOUND ( 'NONE', #79, .T. ) ;
#62 = CARTESIAN_POINT ( 'NONE',  ( 0.000000000000000000, 0.000000000000000000, 0.000000000000000000 ) ) ;
#63 = ORIENTED_EDGE ( 'NONE', *, *, #194, .F. ) ;
#64 = FACE_OUTER_BOUND ( 'NONE', #173, .T. ) ;
#65 = ORIENTED_EDGE ( 'NONE', *, *, #66, .F. ) ;
#66 = EDGE_CURVE ( 'NONE', #56, #250, #119, .T. ) ;
#67 = DIRECTION ( 'NONE',  ( 1.000000000000000000, 0.000000000000000000, 0.000000000000000000 ) ) ;
#68 = ORIENTED_EDGE ( 'NONE', *, *, #194, .T. ) ;
#69 = PRODUCT ( 'e69f', 'e69f', '', ( #193 ) ) ;
#70 = APPROVAL ( #94, 'NEURÈENÝ' ) ;
#71 = ORIENTED_EDGE ( 'NONE', *, *, #164, .F. ) ;
#72 = DATE_AND_TIME ( #91, #108 ) ;
#73 = PERSON_AND_ORGANIZATION ( #179, #12 ) ;
#74 = ORIENTED_EDGE ( 'NONE', *, *, #66, .T. ) ;
#75 =( NAMED_UNIT ( * ) PLANE_ANGLE_UNIT ( ) SI_UNIT ( $, .RADIAN. ) );
#76 = FACE_OUTER_BOUND ( 'NONE', #35, .T. ) ;
#77 = PERSON_AND_ORGANIZATION_ROLE ( 'design_owner' ) ;
#78 = ORIENTED_EDGE ( 'NONE', *, *, #33, .T. ) ;
#79 = EDGE_LOOP ( 'NONE', ( #14, #63, #50, #190 ) ) ;
#80 = PERSON_AND_ORGANIZATION ( #179, #12 ) ;
#81 = ORIENTED_EDGE ( 'NONE', *, *, #51, .F. ) ;
#82 = CARTESIAN_POINT ( 'NONE',  ( -1.000000000000000000, 0.000000000000000000, 125.0000000000000000 ) ) ;
#83 = FACE_OUTER_BOUND ( 'NONE', #84, .T. ) ;
#84 = EDGE_LOOP ( 'NONE', ( #244, #126 ) ) ;
#85 = CIRCLE ( 'NONE', #191, 2.000000000000000000 ) ;
#86 = COORDINATED_UNIVERSAL_TIME_OFFSET ( 1, 0, .AHEAD. ) ;
#87 = ORIENTED_EDGE ( 'NONE', *, *, #164, .T. ) ;
#88 = DIRECTION ( 'NONE',  ( -1.000000000000000000, 0.000000000000000000, 0.000000000000000000 ) ) ;
#89 = PRODUCT_DEFINITION_FORMATION_WITH_SPECIFIED_SOURCE ( 'LIBOVOLNÝ', '', #69, .NOT_KNOWN. ) ;
#90 = CC_DESIGN_APPROVAL ( #106, ( #89 ) ) ;
#91 = CALENDAR_DATE ( 2023, 12, 2 ) ;
#92 = VERTEX_POINT ( 'NONE', #186 ) ;
#93 = PRODUCT_RELATED_PRODUCT_CATEGORY ( 'detail', '', ( #69 ) ) ;
#94 = APPROVAL_STATUS ( 'not_yet_approved' ) ;
#95 = CARTESIAN_POINT ( 'NONE',  ( -2.000000000000000000, 0.000000000000000000, 2.000000000000000000 ) ) ;
#96 = AXIS2_PLACEMENT_3D ( 'NONE', #137, #187, #110 ) ;
#97 = DIRECTION ( 'NONE',  ( 0.000000000000000000, 0.000000000000000000, 1.000000000000000000 ) ) ;
#98 = CALENDAR_DATE ( 2023, 12, 2 ) ;
#99 = VECTOR ( 'NONE', #240, 1000.000000000000000 ) ;
#100 = DIRECTION ( 'NONE',  ( 1.000000000000000000, 0.000000000000000000, 0.000000000000000000 ) ) ;
#101 = PLANE ( 'NONE',  #155 ) ;
#102 = DIRECTION ( 'NONE',  ( 1.000000000000000000, 0.000000000000000000, -0.000000000000000000 ) ) ;
#103 = VECTOR ( 'NONE', #249, 1000.000000000000000 ) ;
#104 = DIRECTION ( 'NONE',  ( 0.000000000000000000, 0.000000000000000000, 1.000000000000000000 ) ) ;
#105 = SECURITY_CLASSIFICATION ( '', '', #223 ) ;
#106 = APPROVAL ( #200, 'NEURÈENÝ' ) ;
#107 = AXIS2_PLACEMENT_3D ( 'NONE', #30, #11, #255 ) ;
#108 = LOCAL_TIME ( 13, 23, 49.00000000000000000, #52 ) ;
#109 = LOCAL_TIME ( 13, 23, 49.00000000000000000, #239 ) ;
#110 = DIRECTION ( 'NONE',  ( 1.000000000000000000, 0.000000000000000000, 0.000000000000000000 ) ) ;
#111 = AXIS2_PLACEMENT_3D ( 'NONE', #59, #121, #67 ) ;
#112 = SHAPE_DEFINITION_REPRESENTATION ( #149, #123 ) ;
#113 = CARTESIAN_POINT ( 'NONE',  ( 2.000000000000000000, 2.449293598294706414E-16, 0.000000000000000000 ) ) ;
#114 = ADVANCED_FACE ( 'NONE', ( #132 ), #205, .T. ) ;
#115 = DIRECTION ( 'NONE',  ( 1.000000000000000000, 0.000000000000000000, 0.000000000000000000 ) ) ;
#116 = DIRECTION ( 'NONE',  ( 1.000000000000000000, 0.000000000000000000, 0.000000000000000000 ) ) ;
#117 = CIRCLE ( 'NONE', #120, 2.000000000000000000 ) ;
#118 = APPROVAL_ROLE ( '' ) ;
#119 = LINE ( 'NONE', #20, #183 ) ;
#120 = AXIS2_PLACEMENT_3D ( 'NONE', #18, #97, #156 ) ;
#121 = DIRECTION ( 'NONE',  ( 0.000000000000000000, 0.000000000000000000, 1.000000000000000000 ) ) ;
#122 = DIRECTION ( 'NONE',  ( 1.000000000000000000, 0.000000000000000000, -0.000000000000000000 ) ) ;
#123 = ADVANCED_BREP_SHAPE_REPRESENTATION ( 'e69f', ( #127, #218 ), #213 ) ;
#124 = ADVANCED_FACE ( 'NONE', ( #61 ), #252, .T. ) ;
#125 = APPROVAL_DATE_TIME ( #146, #188 ) ;
#126 = ORIENTED_EDGE ( 'NONE', *, *, #41, .T. ) ;
#127 = MANIFOLD_SOLID_BREP ( 'Pøidat vysunutím3', #206 ) ;
#128 = DATE_AND_TIME ( #152, #245 ) ;
#129 = LOCAL_TIME ( 13, 23, 49.00000000000000000, #233 ) ;
#130 = APPLICATION_PROTOCOL_DEFINITION ( 'international standard', 'config_control_design', 1994, #178 ) ;
#131 = ORIENTED_EDGE ( 'NONE', *, *, #3, .T. ) ;
#132 = FACE_OUTER_BOUND ( 'NONE', #230, .T. ) ;
#133 = LINE ( 'NONE', #211, #103 ) ;
#134 = CARTESIAN_POINT ( 'NONE',  ( 0.000000000000000000, 0.000000000000000000, 0.000000000000000000 ) ) ;
#135 = CIRCLE ( 'NONE', #37, 1.000000000000000000 ) ;
#136 = EDGE_LOOP ( 'NONE', ( #44, #217 ) ) ;
#137 = CARTESIAN_POINT ( 'NONE',  ( 0.000000000000000000, 0.000000000000000000, 125.0000000000000000 ) ) ;
#138 = APPROVAL_PERSON_ORGANIZATION ( #163, #70, #118 ) ;
#139 = CARTESIAN_POINT ( 'NONE',  ( 0.000000000000000000, 0.000000000000000000, 2.000000000000000000 ) ) ;
#140 = ADVANCED_FACE ( 'NONE', ( #76 ), #209, .T. ) ;
#141 = CARTESIAN_POINT ( 'NONE',  ( 0.000000000000000000, 0.000000000000000000, 125.0000000000000000 ) ) ;
#142 = VERTEX_POINT ( 'NONE', #177 ) ;
#143 = AXIS2_PLACEMENT_3D ( 'NONE', #139, #229, #234 ) ;
#144 = DIRECTION ( 'NONE',  ( 1.000000000000000000, 0.000000000000000000, -0.000000000000000000 ) ) ;
#145 = CC_DESIGN_PERSON_AND_ORGANIZATION_ASSIGNMENT ( #80, #220, ( #159 ) ) ;
#146 = DATE_AND_TIME ( #243, #109 ) ;
#147 = CC_DESIGN_PERSON_AND_ORGANIZATION_ASSIGNMENT ( #241, #27, ( #105 ) ) ;
#148 =( LENGTH_UNIT ( ) NAMED_UNIT ( * ) SI_UNIT ( .MILLI., .METRE. ) );
#149 = PRODUCT_DEFINITION_SHAPE ( 'NONE', 'NONE',  #159 ) ;
#150 = CYLINDRICAL_SURFACE ( 'NONE', #8, 1.000000000000000000 ) ;
#151 = AXIS2_PLACEMENT_3D ( 'NONE', #26, #6, #122 ) ;
#152 = CALENDAR_DATE ( 2023, 12, 2 ) ;
#153 = CARTESIAN_POINT ( 'NONE',  ( 0.000000000000000000, 0.000000000000000000, 125.0000000000000000 ) ) ;
#154 = APPROVAL_DATE_TIME ( #72, #106 ) ;
#155 = AXIS2_PLACEMENT_3D ( 'NONE', #62, #46, #144 ) ;
#156 = DIRECTION ( 'NONE',  ( 1.000000000000000000, 0.000000000000000000, 0.000000000000000000 ) ) ;
#157 = CARTESIAN_POINT ( 'NONE',  ( 0.000000000000000000, 0.000000000000000000, 0.000000000000000000 ) ) ;
#158 = ORIENTED_EDGE ( 'NONE', *, *, #29, .T. ) ;
#159 = PRODUCT_DEFINITION ( 'NEZNÁMÝ', '', #89, #36 ) ;
#160 = CARTESIAN_POINT ( 'NONE',  ( -1.000000000000000000, 0.000000000000000000, 2.000000000000000000 ) ) ;
#161 = APPLICATION_PROTOCOL_DEFINITION ( 'international standard', 'config_control_design', 1994, #225 ) ;
#162 = ORIENTED_EDGE ( 'NONE', *, *, #184, .T. ) ;
#163 = PERSON_AND_ORGANIZATION ( #179, #12 ) ;
#164 = EDGE_CURVE ( 'NONE', #250, #53, #219, .T. ) ;
#165 = CC_DESIGN_APPROVAL ( #188, ( #105 ) ) ;
#166 = CALENDAR_DATE ( 2023, 12, 2 ) ;
#167 = EDGE_CURVE ( 'NONE', #246, #53, #133, .T. ) ;
#168 = FACE_OUTER_BOUND ( 'NONE', #176, .T. ) ;
#169 = LINE ( 'NONE', #199, #238 ) ;
#170 = CC_DESIGN_DATE_AND_TIME_ASSIGNMENT ( #128, #172, ( #105 ) ) ;
#171 = CIRCLE ( 'NONE', #143, 1.000000000000000000 ) ;
#172 = DATE_TIME_ROLE ( 'classification_date' ) ;
#173 = EDGE_LOOP ( 'NONE', ( #42, #162, #158, #196 ) ) ;
#174 = ADVANCED_FACE ( 'NONE', ( #54 ), #34, .T. ) ;
#175 = ORIENTED_EDGE ( 'NONE', *, *, #33, .F. ) ;
#176 = EDGE_LOOP ( 'NONE', ( #71, #175 ) ) ;
#177 = CARTESIAN_POINT ( 'NONE',  ( -1.000000000000000000, 0.000000000000000000, 125.0000000000000000 ) ) ;
#178 = APPLICATION_CONTEXT ( 'configuration controlled 3d designs of mechanical parts and assemblies' ) ;
#179 = PERSON ( 'NEURÈENÝ', 'NEURÈENÝ', 'NEURÈENÝ', ('NEURÈENÝ'), ('NEURÈENÝ'), ('NEURÈENÝ') ) ;
#180 = FACE_BOUND ( 'NONE', #136, .T. ) ;
#181 = DATE_TIME_ROLE ( 'creation_date' ) ;
#182 = CC_DESIGN_PERSON_AND_ORGANIZATION_ASSIGNMENT ( #251, #77, ( #69 ) ) ;
#183 = VECTOR ( 'NONE', #224, 1000.000000000000000 ) ;
#184 = EDGE_CURVE ( 'NONE', #92, #195, #169, .T. ) ;
#185 = DIRECTION ( 'NONE',  ( -0.000000000000000000, -0.000000000000000000, -1.000000000000000000 ) ) ;
#186 = CARTESIAN_POINT ( 'NONE',  ( 1.000000000000000000, 1.224646799147353207E-16, 125.0000000000000000 ) ) ;
#187 = DIRECTION ( 'NONE',  ( 0.000000000000000000, 0.000000000000000000, 1.000000000000000000 ) ) ;
#188 = APPROVAL ( #31, 'NEURÈENÝ' ) ;
#189 = CARTESIAN_POINT ( 'NONE',  ( 0.000000000000000000, 0.000000000000000000, 2.000000000000000000 ) ) ;
#190 = ORIENTED_EDGE ( 'NONE', *, *, #235, .T. ) ;
#191 = AXIS2_PLACEMENT_3D ( 'NONE', #134, #55, #116 ) ;
#192 = DIRECTION ( 'NONE',  ( -1.000000000000000000, 0.000000000000000000, 0.000000000000000000 ) ) ;
#193 = MECHANICAL_CONTEXT ( 'NONE', #178, 'mechanical' ) ;
#194 = EDGE_CURVE ( 'NONE', #142, #92, #16, .T. ) ;
#195 = VERTEX_POINT ( 'NONE', #2 ) ;
#196 = ORIENTED_EDGE ( 'NONE', *, *, #201, .F. ) ;
#197 = LOCAL_TIME ( 13, 23, 49.00000000000000000, #254 ) ;
#198 = ADVANCED_FACE ( 'NONE', ( #168 ), #101, .F. ) ;
#199 = CARTESIAN_POINT ( 'NONE',  ( 1.000000000000000000, 1.224646799147353207E-16, 125.0000000000000000 ) ) ;
#200 = APPROVAL_STATUS ( 'not_yet_approved' ) ;
#201 = EDGE_CURVE ( 'NONE', #142, #24, #216, .T. ) ;
#202 = AXIS2_PLACEMENT_3D ( 'NONE', #212, #208, #210 ) ;
#203 = ADVANCED_FACE ( 'NONE', ( #180, #83 ), #43, .T. ) ;
#204 = APPROVAL_ROLE ( '' ) ;
#205 = CYLINDRICAL_SURFACE ( 'NONE', #107, 2.000000000000000000 ) ;
#206 = CLOSED_SHELL ( 'NONE', ( #214, #114, #140, #203, #198, #124, #174 ) ) ;
#207 = AXIS2_PLACEMENT_3D ( 'NONE', #189, #13, #17 ) ;
#208 = DIRECTION ( 'NONE',  ( 0.000000000000000000, 0.000000000000000000, 1.000000000000000000 ) ) ;
#209 = CYLINDRICAL_SURFACE ( 'NONE', #207, 2.000000000000000000 ) ;
#210 = DIRECTION ( 'NONE',  ( 1.000000000000000000, 0.000000000000000000, 0.000000000000000000 ) ) ;
#211 = CARTESIAN_POINT ( 'NONE',  ( 2.000000000000000000, 2.449293598294706414E-16, 2.000000000000000000 ) ) ;
#212 = CARTESIAN_POINT ( 'NONE',  ( 0.000000000000000000, 0.000000000000000000, 2.000000000000000000 ) ) ;
#213 =( GEOMETRIC_REPRESENTATION_CONTEXT ( 3 ) GLOBAL_UNCERTAINTY_ASSIGNED_CONTEXT ( ( #15 ) ) GLOBAL_UNIT_ASSIGNED_CONTEXT ( ( #148, #75, #9 ) ) REPRESENTATION_CONTEXT ( 'NONE', 'WORKASPACE' ) );
#214 = ADVANCED_FACE ( 'NONE', ( #64 ), #150, .T. ) ;
#215 = CARTESIAN_POINT ( 'NONE',  ( -2.000000000000000000, 0.000000000000000000, 0.000000000000000000 ) ) ;
#216 = LINE ( 'NONE', #82, #99 ) ;
#217 = ORIENTED_EDGE ( 'NONE', *, *, #29, .F. ) ;
#218 = AXIS2_PLACEMENT_3D ( 'NONE', #227, #32, #242 ) ;
#219 = CIRCLE ( 'NONE', #25, 2.000000000000000000 ) ;
#220 = PERSON_AND_ORGANIZATION_ROLE ( 'creator' ) ;
#221 = PERSON_AND_ORGANIZATION ( #179, #12 ) ;
#222 = ORIENTED_EDGE ( 'NONE', *, *, #41, .F. ) ;
#223 = SECURITY_CLASSIFICATION_LEVEL ( 'unclassified' ) ;
#224 = DIRECTION ( 'NONE',  ( -0.000000000000000000, -0.000000000000000000, -1.000000000000000000 ) ) ;
#225 = APPLICATION_CONTEXT ( 'configuration controlled 3d designs of mechanical parts and assemblies' ) ;
#226 = DIRECTION ( 'NONE',  ( 0.000000000000000000, 0.000000000000000000, 1.000000000000000000 ) ) ;
#227 = CARTESIAN_POINT ( 'NONE',  ( 0.000000000000000000, 0.000000000000000000, 0.000000000000000000 ) ) ;
#228 = CIRCLE ( 'NONE', #202, 2.000000000000000000 ) ;
#229 = DIRECTION ( 'NONE',  ( 0.000000000000000000, 0.000000000000000000, 1.000000000000000000 ) ) ;
#230 = EDGE_LOOP ( 'NONE', ( #222, #253, #78, #65 ) ) ;
#231 = PERSON_AND_ORGANIZATION ( #179, #12 ) ;
#232 = APPROVAL_PERSON_ORGANIZATION ( #73, #106, #204 ) ;
#233 = COORDINATED_UNIVERSAL_TIME_OFFSET ( 1, 0, .AHEAD. ) ;
#234 = DIRECTION ( 'NONE',  ( 1.000000000000000000, 0.000000000000000000, 0.000000000000000000 ) ) ;
#235 = EDGE_CURVE ( 'NONE', #24, #195, #135, .T. ) ;
#236 = CARTESIAN_POINT ( 'NONE',  ( 2.000000000000000000, 2.449293598294706414E-16, 2.000000000000000000 ) ) ;
#237 = DATE_AND_TIME ( #166, #197 ) ;
#238 = VECTOR ( 'NONE', #1, 1000.000000000000000 ) ;
#239 = COORDINATED_UNIVERSAL_TIME_OFFSET ( 1, 0, .AHEAD. ) ;
#240 = DIRECTION ( 'NONE',  ( -0.000000000000000000, -0.000000000000000000, -1.000000000000000000 ) ) ;
#241 = PERSON_AND_ORGANIZATION ( #179, #12 ) ;
#242 = DIRECTION ( 'NONE',  ( 1.000000000000000000, 0.000000000000000000, 0.000000000000000000 ) ) ;
#243 = CALENDAR_DATE ( 2023, 12, 2 ) ;
#244 = ORIENTED_EDGE ( 'NONE', *, *, #51, .T. ) ;
#245 = LOCAL_TIME ( 13, 23, 49.00000000000000000, #86 ) ;
#246 = VERTEX_POINT ( 'NONE', #236 ) ;
#247 = CIRCLE ( 'NONE', #96, 1.000000000000000000 ) ;
#248 = EDGE_LOOP ( 'NONE', ( #68, #131 ) ) ;
#249 = DIRECTION ( 'NONE',  ( -0.000000000000000000, -0.000000000000000000, -1.000000000000000000 ) ) ;
#250 = VERTEX_POINT ( 'NONE', #215 ) ;
#251 = PERSON_AND_ORGANIZATION ( #179, #12 ) ;
#252 = CYLINDRICAL_SURFACE ( 'NONE', #4, 1.000000000000000000 ) ;
#253 = ORIENTED_EDGE ( 'NONE', *, *, #167, .T. ) ;
#254 = COORDINATED_UNIVERSAL_TIME_OFFSET ( 1, 0, .AHEAD. ) ;
#255 = DIRECTION ( 'NONE',  ( -1.000000000000000000, 0.000000000000000000, 0.000000000000000000 ) ) ;
ENDSEC;
END-ISO-10303-21;
