ISO-10303-21;
HEADER;
FILE_DESCRIPTION (( 'STEP AP203' ),
    '1' );
FILE_NAME ('85d8.STEP',
    '2023-02-12T12:12:23',
    ( '' ),
    ( '' ),
    'SwSTEP 2.0',
    'SolidWorks 2019',
    '' );
FILE_SCHEMA (( 'CONFIG_CONTROL_DESIGN' ));
ENDSEC;

DATA;
#1 = ORIENTED_EDGE ( 'NONE', *, *, #76, .F. ) ;
#2 = ORIENTED_EDGE ( 'NONE', *, *, #18, .F. ) ;
#3 = DATE_AND_TIME ( #72, #116 ) ;
#4 = ORIENTED_EDGE ( 'NONE', *, *, #153, .T. ) ;
#5 = ADVANCED_FACE ( 'NONE', ( #117 ), #120, .T. ) ;
#6 = CARTESIAN_POINT ( 'NONE',  ( 0.000000000000000000, 0.000000000000000000, 160.0000000000000000 ) ) ;
#7 = DATE_TIME_ROLE ( 'classification_date' ) ;
#8 = FACE_OUTER_BOUND ( 'NONE', #138, .T. ) ;
#9 = CARTESIAN_POINT ( 'NONE',  ( 1.600000000000000089, 1.959434878635765230E-16, 160.0000000000000000 ) ) ;
#10 = VERTEX_POINT ( 'NONE', #102 ) ;
#11 = PERSON_AND_ORGANIZATION ( #201, #184 ) ;
#12 = LINE ( 'NONE', #139, #255 ) ;
#13 = ADVANCED_FACE ( 'NONE', ( #140, #8 ), #86, .T. ) ;
#14 = CALENDAR_DATE ( 2023, 12, 2 ) ;
#15 = DIRECTION ( 'NONE',  ( 0.000000000000000000, 0.000000000000000000, 1.000000000000000000 ) ) ;
#16 = PERSON_AND_ORGANIZATION ( #201, #184 ) ;
#17 = AXIS2_PLACEMENT_3D ( 'NONE', #68, #133, #206 ) ;
#18 = EDGE_CURVE ( 'NONE', #225, #128, #200, .T. ) ;
#19 = CIRCLE ( 'NONE', #17, 3.000000000000000444 ) ;
#20 = EDGE_CURVE ( 'NONE', #213, #10, #242, .T. ) ;
#21 = ORIENTED_EDGE ( 'NONE', *, *, #235, .F. ) ;
#22 = CIRCLE ( 'NONE', #78, 3.000000000000000444 ) ;
#23 = AXIS2_PLACEMENT_3D ( 'NONE', #91, #123, #240 ) ;
#24 = LOCAL_TIME ( 13, 12, 23.00000000000000000, #186 ) ;
#25 = EDGE_LOOP ( 'NONE', ( #71, #4, #237, #247 ) ) ;
#26 = APPROVAL_DATE_TIME ( #3, #254 ) ;
#27 = CARTESIAN_POINT ( 'NONE',  ( 0.000000000000000000, 0.000000000000000000, 160.0000000000000000 ) ) ;
#28 = CC_DESIGN_APPROVAL ( #254, ( #188 ) ) ;
#29 = VERTEX_POINT ( 'NONE', #155 ) ;
#30 = DIRECTION ( 'NONE',  ( 1.000000000000000000, 0.000000000000000000, -0.000000000000000000 ) ) ;
#31 = CARTESIAN_POINT ( 'NONE',  ( 3.000000000000000444, 3.673940397442060361E-16, 0.000000000000000000 ) ) ;
#32 = CARTESIAN_POINT ( 'NONE',  ( 0.000000000000000000, 0.000000000000000000, 0.000000000000000000 ) ) ;
#33 = CC_DESIGN_PERSON_AND_ORGANIZATION_ASSIGNMENT ( #176, #65, ( #231 ) ) ;
#34 =( LENGTH_UNIT ( ) NAMED_UNIT ( * ) SI_UNIT ( .MILLI., .METRE. ) );
#35 = DIRECTION ( 'NONE',  ( 0.000000000000000000, 0.000000000000000000, 1.000000000000000000 ) ) ;
#36 = DATE_AND_TIME ( #14, #83 ) ;
#37 = CARTESIAN_POINT ( 'NONE',  ( 0.000000000000000000, 0.000000000000000000, 160.0000000000000000 ) ) ;
#38 = CARTESIAN_POINT ( 'NONE',  ( 0.000000000000000000, 0.000000000000000000, 3.000000000000000000 ) ) ;
#39 = APPROVAL_STATUS ( 'not_yet_approved' ) ;
#40 =( NAMED_UNIT ( * ) SI_UNIT ( $, .STERADIAN. ) SOLID_ANGLE_UNIT ( ) );
#41 = LOCAL_TIME ( 13, 12, 23.00000000000000000, #144 ) ;
#42 = AXIS2_PLACEMENT_3D ( 'NONE', #32, #185, #223 ) ;
#43 = ORIENTED_EDGE ( 'NONE', *, *, #110, .F. ) ;
#44 = ORIENTED_EDGE ( 'NONE', *, *, #193, .F. ) ;
#45 = EDGE_LOOP ( 'NONE', ( #173, #171 ) ) ;
#46 = SECURITY_CLASSIFICATION_LEVEL ( 'unclassified' ) ;
#47 = VERTEX_POINT ( 'NONE', #239 ) ;
#48 = CIRCLE ( 'NONE', #98, 1.600000000000000089 ) ;
#49 = PERSON_AND_ORGANIZATION ( #201, #184 ) ;
#50 = EDGE_LOOP ( 'NONE', ( #80, #21, #131, #113 ) ) ;
#51 = DIRECTION ( 'NONE',  ( 0.000000000000000000, 0.000000000000000000, 1.000000000000000000 ) ) ;
#52 = PERSON_AND_ORGANIZATION ( #201, #184 ) ;
#53 = CARTESIAN_POINT ( 'NONE',  ( 0.000000000000000000, 0.000000000000000000, 3.000000000000000000 ) ) ;
#54 = DIRECTION ( 'NONE',  ( 1.000000000000000000, 0.000000000000000000, 0.000000000000000000 ) ) ;
#55 = LINE ( 'NONE', #187, #197 ) ;
#56 = COORDINATED_UNIVERSAL_TIME_OFFSET ( 1, 0, .AHEAD. ) ;
#57 = FACE_OUTER_BOUND ( 'NONE', #50, .T. ) ;
#58 = CIRCLE ( 'NONE', #42, 3.000000000000000444 ) ;
#59 = EDGE_LOOP ( 'NONE', ( #177, #1 ) ) ;
#60 = DIRECTION ( 'NONE',  ( 1.000000000000000000, 0.000000000000000000, 0.000000000000000000 ) ) ;
#61 = CALENDAR_DATE ( 2023, 12, 2 ) ;
#62 = LINE ( 'NONE', #163, #125 ) ;
#63 = EDGE_CURVE ( 'NONE', #215, #130, #19, .T. ) ;
#64 = CLOSED_SHELL ( 'NONE', ( #5, #156, #234, #13, #230, #97, #243 ) ) ;
#65 = PERSON_AND_ORGANIZATION_ROLE ( 'creator' ) ;
#66 = ORIENTED_EDGE ( 'NONE', *, *, #63, .T. ) ;
#67 = APPROVAL_ROLE ( '' ) ;
#68 = CARTESIAN_POINT ( 'NONE',  ( 0.000000000000000000, 0.000000000000000000, 0.000000000000000000 ) ) ;
#69 = DIRECTION ( 'NONE',  ( 0.000000000000000000, 0.000000000000000000, 1.000000000000000000 ) ) ;
#70 = DIRECTION ( 'NONE',  ( -1.000000000000000000, 0.000000000000000000, 0.000000000000000000 ) ) ;
#71 = ORIENTED_EDGE ( 'NONE', *, *, #107, .F. ) ;
#72 = CALENDAR_DATE ( 2023, 12, 2 ) ;
#73 = DIRECTION ( 'NONE',  ( -1.000000000000000000, 0.000000000000000000, 0.000000000000000000 ) ) ;
#74 = EDGE_LOOP ( 'NONE', ( #44, #181, #100, #66 ) ) ;
#75 = PERSON_AND_ORGANIZATION_ROLE ( 'design_owner' ) ;
#76 = EDGE_CURVE ( 'NONE', #130, #215, #58, .T. ) ;
#77 = CC_DESIGN_DATE_AND_TIME_ASSIGNMENT ( #180, #126, ( #160 ) ) ;
#78 = AXIS2_PLACEMENT_3D ( 'NONE', #210, #35, #108 ) ;
#79 = CC_DESIGN_APPROVAL ( #190, ( #160 ) ) ;
#80 = ORIENTED_EDGE ( 'NONE', *, *, #153, .F. ) ;
#81 = AXIS2_PLACEMENT_3D ( 'NONE', #236, #174, #178 ) ;
#82 = ORIENTED_EDGE ( 'NONE', *, *, #20, .T. ) ;
#83 = LOCAL_TIME ( 13, 12, 23.00000000000000000, #135 ) ;
#84 = DIRECTION ( 'NONE',  ( 0.000000000000000000, 0.000000000000000000, 1.000000000000000000 ) ) ;
#85 = FACE_OUTER_BOUND ( 'NONE', #45, .T. ) ;
#86 = PLANE ( 'NONE',  #146 ) ;
#87 = AXIS2_PLACEMENT_3D ( 'NONE', #6, #189, #30 ) ;
#88 = CYLINDRICAL_SURFACE ( 'NONE', #23, 3.000000000000000444 ) ;
#89 = DIRECTION ( 'NONE',  ( -0.000000000000000000, -0.000000000000000000, -1.000000000000000000 ) ) ;
#90 = DIRECTION ( 'NONE',  ( -1.000000000000000000, 0.000000000000000000, 0.000000000000000000 ) ) ;
#91 = CARTESIAN_POINT ( 'NONE',  ( 0.000000000000000000, 0.000000000000000000, 3.000000000000000000 ) ) ;
#92 = CC_DESIGN_DATE_AND_TIME_ASSIGNMENT ( #36, #7, ( #188 ) ) ;
#93 = DIRECTION ( 'NONE',  ( 1.000000000000000000, 0.000000000000000000, 0.000000000000000000 ) ) ;
#94 = EDGE_LOOP ( 'NONE', ( #43, #2 ) ) ;
#95 = PERSON_AND_ORGANIZATION_ROLE ( 'creator' ) ;
#96 = ADVANCED_BREP_SHAPE_REPRESENTATION ( '85d8', ( #159, #114 ), #141 ) ;
#97 = ADVANCED_FACE ( 'NONE', ( #57 ), #209, .T. ) ;
#98 = AXIS2_PLACEMENT_3D ( 'NONE', #122, #51, #227 ) ;
#99 = ORIENTED_EDGE ( 'NONE', *, *, #193, .T. ) ;
#100 = ORIENTED_EDGE ( 'NONE', *, *, #112, .T. ) ;
#101 = PERSON_AND_ORGANIZATION_ROLE ( 'classification_officer' ) ;
#102 = CARTESIAN_POINT ( 'NONE',  ( -3.000000000000000444, 0.000000000000000000, 3.000000000000000000 ) ) ;
#103 = APPROVAL_STATUS ( 'not_yet_approved' ) ;
#104 = ORIENTED_EDGE ( 'NONE', *, *, #76, .T. ) ;
#105 = CARTESIAN_POINT ( 'NONE',  ( 3.000000000000000444, 3.673940397442060361E-16, 3.000000000000000000 ) ) ;
#106 = DATE_AND_TIME ( #154, #198 ) ;
#107 = EDGE_CURVE ( 'NONE', #29, #47, #212, .T. ) ;
#108 = DIRECTION ( 'NONE',  ( 1.000000000000000000, 0.000000000000000000, 0.000000000000000000 ) ) ;
#109 = VECTOR ( 'NONE', #124, 1000.000000000000000 ) ;
#110 = EDGE_CURVE ( 'NONE', #128, #225, #48, .T. ) ;
#111 = DESIGN_CONTEXT ( 'detailed design', #202, 'design' ) ;
#112 = EDGE_CURVE ( 'NONE', #10, #215, #62, .T. ) ;
#113 = ORIENTED_EDGE ( 'NONE', *, *, #110, .T. ) ;
#114 = AXIS2_PLACEMENT_3D ( 'NONE', #136, #15, #165 ) ;
#115 = CC_DESIGN_PERSON_AND_ORGANIZATION_ASSIGNMENT ( #16, #95, ( #160 ) ) ;
#116 = LOCAL_TIME ( 13, 12, 23.00000000000000000, #56 ) ;
#117 = FACE_OUTER_BOUND ( 'NONE', #25, .T. ) ;
#118 = DIRECTION ( 'NONE',  ( -0.000000000000000000, -0.000000000000000000, -1.000000000000000000 ) ) ;
#119 = CARTESIAN_POINT ( 'NONE',  ( 0.000000000000000000, 0.000000000000000000, 3.000000000000000000 ) ) ;
#120 = CYLINDRICAL_SURFACE ( 'NONE', #175, 1.600000000000000089 ) ;
#121 = CC_DESIGN_APPROVAL ( #132, ( #231 ) ) ;
#122 = CARTESIAN_POINT ( 'NONE',  ( 0.000000000000000000, 0.000000000000000000, 3.000000000000000000 ) ) ;
#123 = DIRECTION ( 'NONE',  ( -0.000000000000000000, -0.000000000000000000, -1.000000000000000000 ) ) ;
#124 = DIRECTION ( 'NONE',  ( -0.000000000000000000, -0.000000000000000000, -1.000000000000000000 ) ) ;
#125 = VECTOR ( 'NONE', #118, 1000.000000000000000 ) ;
#126 = DATE_TIME_ROLE ( 'creation_date' ) ;
#127 = AXIS2_PLACEMENT_3D ( 'NONE', #37, #164, #73 ) ;
#128 = VERTEX_POINT ( 'NONE', #204 ) ;
#129 = CC_DESIGN_PERSON_AND_ORGANIZATION_ASSIGNMENT ( #11, #75, ( #233 ) ) ;
#130 = VERTEX_POINT ( 'NONE', #31 ) ;
#131 = ORIENTED_EDGE ( 'NONE', *, *, #217, .T. ) ;
#132 = APPROVAL ( #222, 'NEURÈENÝ' ) ;
#133 = DIRECTION ( 'NONE',  ( 0.000000000000000000, 0.000000000000000000, 1.000000000000000000 ) ) ;
#134 = DIRECTION ( 'NONE',  ( 0.000000000000000000, 0.000000000000000000, 1.000000000000000000 ) ) ;
#135 = COORDINATED_UNIVERSAL_TIME_OFFSET ( 1, 0, .AHEAD. ) ;
#136 = CARTESIAN_POINT ( 'NONE',  ( 0.000000000000000000, 0.000000000000000000, 0.000000000000000000 ) ) ;
#137 = PERSON_AND_ORGANIZATION ( #201, #184 ) ;
#138 = EDGE_LOOP ( 'NONE', ( #218, #82 ) ) ;
#139 = CARTESIAN_POINT ( 'NONE',  ( -1.600000000000000089, 0.000000000000000000, 160.0000000000000000 ) ) ;
#140 = FACE_BOUND ( 'NONE', #94, .T. ) ;
#141 =( GEOMETRIC_REPRESENTATION_CONTEXT ( 3 ) GLOBAL_UNCERTAINTY_ASSIGNED_CONTEXT ( ( #145 ) ) GLOBAL_UNIT_ASSIGNED_CONTEXT ( ( #34, #229, #40 ) ) REPRESENTATION_CONTEXT ( 'NONE', 'WORKASPACE' ) );
#142 = CARTESIAN_POINT ( 'NONE',  ( 0.000000000000000000, 0.000000000000000000, 160.0000000000000000 ) ) ;
#143 = CARTESIAN_POINT ( 'NONE',  ( 0.000000000000000000, 0.000000000000000000, 160.0000000000000000 ) ) ;
#144 = COORDINATED_UNIVERSAL_TIME_OFFSET ( 1, 0, .AHEAD. ) ;
#145 = UNCERTAINTY_MEASURE_WITH_UNIT (LENGTH_MEASURE( 1.000000000000000082E-05 ), #34, 'distance_accuracy_value', 'NONE');
#146 = AXIS2_PLACEMENT_3D ( 'NONE', #119, #158, #244 ) ;
#147 = EDGE_CURVE ( 'NONE', #10, #213, #22, .T. ) ;
#148 = PLANE ( 'NONE',  #81 ) ;
#149 = ORIENTED_EDGE ( 'NONE', *, *, #20, .F. ) ;
#150 = APPROVAL_PERSON_ORGANIZATION ( #137, #132, #161 ) ;
#151 = PRODUCT_RELATED_PRODUCT_CATEGORY ( 'detail', '', ( #233 ) ) ;
#152 = EDGE_LOOP ( 'NONE', ( #149, #99, #104, #199 ) ) ;
#153 = EDGE_CURVE ( 'NONE', #29, #225, #166, .T. ) ;
#154 = CALENDAR_DATE ( 2023, 12, 2 ) ;
#155 = CARTESIAN_POINT ( 'NONE',  ( 1.600000000000000089, 1.959434878635765230E-16, 160.0000000000000000 ) ) ;
#156 = ADVANCED_FACE ( 'NONE', ( #192 ), #221, .T. ) ;
#157 = AXIS2_PLACEMENT_3D ( 'NONE', #142, #134, #54 ) ;
#158 = DIRECTION ( 'NONE',  ( 0.000000000000000000, 0.000000000000000000, 1.000000000000000000 ) ) ;
#159 = MANIFOLD_SOLID_BREP ( 'Pøidat vysunutím3', #64 ) ;
#160 = PRODUCT_DEFINITION ( 'NEZNÁMÝ', '', #231, #111 ) ;
#161 = APPROVAL_ROLE ( '' ) ;
#162 = DATE_AND_TIME ( #191, #24 ) ;
#163 = CARTESIAN_POINT ( 'NONE',  ( -3.000000000000000444, 0.000000000000000000, 3.000000000000000000 ) ) ;
#164 = DIRECTION ( 'NONE',  ( -0.000000000000000000, -0.000000000000000000, -1.000000000000000000 ) ) ;
#165 = DIRECTION ( 'NONE',  ( 1.000000000000000000, 0.000000000000000000, 0.000000000000000000 ) ) ;
#166 = LINE ( 'NONE', #9, #109 ) ;
#167 = AXIS2_PLACEMENT_3D ( 'NONE', #143, #228, #60 ) ;
#168 = CARTESIAN_POINT ( 'NONE',  ( 1.600000000000000089, 1.959434878635765230E-16, 3.000000000000000000 ) ) ;
#169 = AXIS2_PLACEMENT_3D ( 'NONE', #38, #89, #70 ) ;
#170 = DIRECTION ( 'NONE',  ( -0.000000000000000000, -0.000000000000000000, -1.000000000000000000 ) ) ;
#171 = ORIENTED_EDGE ( 'NONE', *, *, #107, .T. ) ;
#172 = CC_DESIGN_SECURITY_CLASSIFICATION ( #188, ( #231 ) ) ;
#173 = ORIENTED_EDGE ( 'NONE', *, *, #235, .T. ) ;
#174 = DIRECTION ( 'NONE',  ( 0.000000000000000000, 0.000000000000000000, 1.000000000000000000 ) ) ;
#175 = AXIS2_PLACEMENT_3D ( 'NONE', #27, #203, #90 ) ;
#176 = PERSON_AND_ORGANIZATION ( #201, #184 ) ;
#177 = ORIENTED_EDGE ( 'NONE', *, *, #63, .F. ) ;
#178 = DIRECTION ( 'NONE',  ( 1.000000000000000000, 0.000000000000000000, -0.000000000000000000 ) ) ;
#179 = PERSON_AND_ORGANIZATION_ROLE ( 'design_supplier' ) ;
#180 = DATE_AND_TIME ( #61, #41 ) ;
#181 = ORIENTED_EDGE ( 'NONE', *, *, #147, .F. ) ;
#182 = APPLICATION_PROTOCOL_DEFINITION ( 'international standard', 'config_control_design', 1994, #194 ) ;
#183 = AXIS2_PLACEMENT_3D ( 'NONE', #219, #69, #93 ) ;
#184 = ORGANIZATION ( 'NEURÈENÝ', 'NEURÈENÝ', '' ) ;
#185 = DIRECTION ( 'NONE',  ( 0.000000000000000000, 0.000000000000000000, 1.000000000000000000 ) ) ;
#186 = COORDINATED_UNIVERSAL_TIME_OFFSET ( 1, 0, .AHEAD. ) ;
#187 = CARTESIAN_POINT ( 'NONE',  ( 3.000000000000000444, 3.673940397442060361E-16, 3.000000000000000000 ) ) ;
#188 = SECURITY_CLASSIFICATION ( '', '', #46 ) ;
#189 = DIRECTION ( 'NONE',  ( 0.000000000000000000, 0.000000000000000000, 1.000000000000000000 ) ) ;
#190 = APPROVAL ( #39, 'NEURÈENÝ' ) ;
#191 = CALENDAR_DATE ( 2023, 12, 2 ) ;
#192 = FACE_OUTER_BOUND ( 'NONE', #152, .T. ) ;
#193 = EDGE_CURVE ( 'NONE', #213, #130, #55, .T. ) ;
#194 = APPLICATION_CONTEXT ( 'configuration controlled 3d designs of mechanical parts and assemblies' ) ;
#195 = PRODUCT_DEFINITION_SHAPE ( 'NONE', 'NONE',  #160 ) ;
#196 = CC_DESIGN_PERSON_AND_ORGANIZATION_ASSIGNMENT ( #52, #179, ( #231 ) ) ;
#197 = VECTOR ( 'NONE', #249, 1000.000000000000000 ) ;
#198 = LOCAL_TIME ( 13, 12, 23.00000000000000000, #238 ) ;
#199 = ORIENTED_EDGE ( 'NONE', *, *, #112, .F. ) ;
#200 = CIRCLE ( 'NONE', #183, 1.600000000000000089 ) ;
#201 = PERSON ( 'NEURÈENÝ', 'NEURÈENÝ', 'NEURÈENÝ', ('NEURÈENÝ'), ('NEURÈENÝ'), ('NEURÈENÝ') ) ;
#202 = APPLICATION_CONTEXT ( 'configuration controlled 3d designs of mechanical parts and assemblies' ) ;
#203 = DIRECTION ( 'NONE',  ( -0.000000000000000000, -0.000000000000000000, -1.000000000000000000 ) ) ;
#204 = CARTESIAN_POINT ( 'NONE',  ( -1.600000000000000089, 0.000000000000000000, 3.000000000000000000 ) ) ;
#205 = SHAPE_DEFINITION_REPRESENTATION ( #195, #96 ) ;
#206 = DIRECTION ( 'NONE',  ( 1.000000000000000000, 0.000000000000000000, 0.000000000000000000 ) ) ;
#207 = AXIS2_PLACEMENT_3D ( 'NONE', #53, #84, #250 ) ;
#208 = APPROVAL_DATE_TIME ( #106, #132 ) ;
#209 = CYLINDRICAL_SURFACE ( 'NONE', #127, 1.600000000000000089 ) ;
#210 = CARTESIAN_POINT ( 'NONE',  ( 0.000000000000000000, 0.000000000000000000, 3.000000000000000000 ) ) ;
#211 = APPLICATION_PROTOCOL_DEFINITION ( 'international standard', 'config_control_design', 1994, #202 ) ;
#212 = CIRCLE ( 'NONE', #167, 1.600000000000000089 ) ;
#213 = VERTEX_POINT ( 'NONE', #105 ) ;
#214 = CC_DESIGN_PERSON_AND_ORGANIZATION_ASSIGNMENT ( #49, #101, ( #188 ) ) ;
#215 = VERTEX_POINT ( 'NONE', #252 ) ;
#216 = APPROVAL_PERSON_ORGANIZATION ( #246, #254, #67 ) ;
#217 = EDGE_CURVE ( 'NONE', #47, #128, #12, .T. ) ;
#218 = ORIENTED_EDGE ( 'NONE', *, *, #147, .T. ) ;
#219 = CARTESIAN_POINT ( 'NONE',  ( 0.000000000000000000, 0.000000000000000000, 3.000000000000000000 ) ) ;
#220 = PERSON_AND_ORGANIZATION ( #201, #184 ) ;
#221 = CYLINDRICAL_SURFACE ( 'NONE', #169, 3.000000000000000444 ) ;
#222 = APPROVAL_STATUS ( 'not_yet_approved' ) ;
#223 = DIRECTION ( 'NONE',  ( 1.000000000000000000, 0.000000000000000000, 0.000000000000000000 ) ) ;
#224 = PLANE ( 'NONE',  #87 ) ;
#225 = VERTEX_POINT ( 'NONE', #168 ) ;
#226 = MECHANICAL_CONTEXT ( 'NONE', #194, 'mechanical' ) ;
#227 = DIRECTION ( 'NONE',  ( 1.000000000000000000, 0.000000000000000000, 0.000000000000000000 ) ) ;
#228 = DIRECTION ( 'NONE',  ( 0.000000000000000000, 0.000000000000000000, 1.000000000000000000 ) ) ;
#229 =( NAMED_UNIT ( * ) PLANE_ANGLE_UNIT ( ) SI_UNIT ( $, .RADIAN. ) );
#230 = ADVANCED_FACE ( 'NONE', ( #232 ), #148, .F. ) ;
#231 = PRODUCT_DEFINITION_FORMATION_WITH_SPECIFIED_SOURCE ( 'LIBOVOLNÝ', '', #233, .NOT_KNOWN. ) ;
#232 = FACE_OUTER_BOUND ( 'NONE', #59, .T. ) ;
#233 = PRODUCT ( '85d8', '85d8', '', ( #226 ) ) ;
#234 = ADVANCED_FACE ( 'NONE', ( #251 ), #88, .T. ) ;
#235 = EDGE_CURVE ( 'NONE', #47, #29, #241, .T. ) ;
#236 = CARTESIAN_POINT ( 'NONE',  ( 0.000000000000000000, 0.000000000000000000, 0.000000000000000000 ) ) ;
#237 = ORIENTED_EDGE ( 'NONE', *, *, #18, .T. ) ;
#238 = COORDINATED_UNIVERSAL_TIME_OFFSET ( 1, 0, .AHEAD. ) ;
#239 = CARTESIAN_POINT ( 'NONE',  ( -1.600000000000000089, 0.000000000000000000, 160.0000000000000000 ) ) ;
#240 = DIRECTION ( 'NONE',  ( -1.000000000000000000, 0.000000000000000000, 0.000000000000000000 ) ) ;
#241 = CIRCLE ( 'NONE', #157, 1.600000000000000089 ) ;
#242 = CIRCLE ( 'NONE', #207, 3.000000000000000444 ) ;
#243 = ADVANCED_FACE ( 'NONE', ( #85 ), #224, .T. ) ;
#244 = DIRECTION ( 'NONE',  ( 1.000000000000000000, 0.000000000000000000, -0.000000000000000000 ) ) ;
#245 = APPROVAL_ROLE ( '' ) ;
#246 = PERSON_AND_ORGANIZATION ( #201, #184 ) ;
#247 = ORIENTED_EDGE ( 'NONE', *, *, #217, .F. ) ;
#248 = APPROVAL_DATE_TIME ( #162, #190 ) ;
#249 = DIRECTION ( 'NONE',  ( -0.000000000000000000, -0.000000000000000000, -1.000000000000000000 ) ) ;
#250 = DIRECTION ( 'NONE',  ( 1.000000000000000000, 0.000000000000000000, 0.000000000000000000 ) ) ;
#251 = FACE_OUTER_BOUND ( 'NONE', #74, .T. ) ;
#252 = CARTESIAN_POINT ( 'NONE',  ( -3.000000000000000444, 0.000000000000000000, 0.000000000000000000 ) ) ;
#253 = APPROVAL_PERSON_ORGANIZATION ( #220, #190, #245 ) ;
#254 = APPROVAL ( #103, 'NEURÈENÝ' ) ;
#255 = VECTOR ( 'NONE', #170, 1000.000000000000000 ) ;
ENDSEC;
END-ISO-10303-21;
