ISO-10303-21;
HEADER;
FILE_DESCRIPTION (( 'STEP AP203' ),
    '1' );
FILE_NAME ('c5cb.STEP',
    '2023-02-12T10:35:22',
    ( '' ),
    ( '' ),
    'SwSTEP 2.0',
    'SolidWorks 2019',
    '' );
FILE_SCHEMA (( 'CONFIG_CONTROL_DESIGN' ));
ENDSEC;

DATA;
#1 = CIRCLE ( 'NONE', #230, 10.00000000000000178 ) ;
#2 = CARTESIAN_POINT ( 'NONE',  ( 13.00000000000000178, 1.592040838891559293E-15, 8.000000000000000000 ) ) ;
#3 = EDGE_CURVE ( 'NONE', #178, #26, #36, .T. ) ;
#4 = CARTESIAN_POINT ( 'NONE',  ( -10.00000000000000178, 0.000000000000000000, 8.000000000000000000 ) ) ;
#5 = DIRECTION ( 'NONE',  ( -0.000000000000000000, -0.000000000000000000, -1.000000000000000000 ) ) ;
#6 = APPROVAL_ROLE ( '' ) ;
#7 = LOCAL_TIME ( 11, 35, 22.00000000000000000, #199 ) ;
#8 = PLANE ( 'NONE',  #216 ) ;
#9 = APPROVAL_STATUS ( 'not_yet_approved' ) ;
#10 = SHAPE_DEFINITION_REPRESENTATION ( #174, #112 ) ;
#11 = CALENDAR_DATE ( 2023, 12, 2 ) ;
#12 = CC_DESIGN_PERSON_AND_ORGANIZATION_ASSIGNMENT ( #198, #104, ( #13 ) ) ;
#13 = PRODUCT_DEFINITION_FORMATION_WITH_SPECIFIED_SOURCE ( 'LIBOVOLNÝ', '', #48, .NOT_KNOWN. ) ;
#14 = MECHANICAL_CONTEXT ( 'NONE', #150, 'mechanical' ) ;
#15 = DIRECTION ( 'NONE',  ( 0.000000000000000000, 0.000000000000000000, 1.000000000000000000 ) ) ;
#16 = CARTESIAN_POINT ( 'NONE',  ( 0.000000000000000000, 0.000000000000000000, 0.000000000000000000 ) ) ;
#17 = ORIENTED_EDGE ( 'NONE', *, *, #114, .F. ) ;
#18 = ORIENTED_EDGE ( 'NONE', *, *, #28, .F. ) ;
#19 = DIRECTION ( 'NONE',  ( 0.000000000000000000, 0.000000000000000000, 1.000000000000000000 ) ) ;
#20 =( GEOMETRIC_REPRESENTATION_CONTEXT ( 3 ) GLOBAL_UNCERTAINTY_ASSIGNED_CONTEXT ( ( #182 ) ) GLOBAL_UNIT_ASSIGNED_CONTEXT ( ( #228, #54, #210 ) ) REPRESENTATION_CONTEXT ( 'NONE', 'WORKASPACE' ) );
#21 = FACE_OUTER_BOUND ( 'NONE', #131, .T. ) ;
#22 = FACE_OUTER_BOUND ( 'NONE', #106, .T. ) ;
#23 = EDGE_CURVE ( 'NONE', #213, #247, #81, .T. ) ;
#24 = FACE_OUTER_BOUND ( 'NONE', #130, .T. ) ;
#25 = AXIS2_PLACEMENT_3D ( 'NONE', #99, #42, #171 ) ;
#26 = VERTEX_POINT ( 'NONE', #94 ) ;
#27 = DATE_AND_TIME ( #74, #7 ) ;
#28 = EDGE_CURVE ( 'NONE', #26, #178, #46, .T. ) ;
#29 = AXIS2_PLACEMENT_3D ( 'NONE', #254, #79, #234 ) ;
#30 = ORIENTED_EDGE ( 'NONE', *, *, #73, .T. ) ;
#31 = CARTESIAN_POINT ( 'NONE',  ( 0.000000000000000000, 0.000000000000000000, 0.000000000000000000 ) ) ;
#32 = APPROVAL ( #9, 'NEURÈENÝ' ) ;
#33 = DIRECTION ( 'NONE',  ( 1.000000000000000000, 0.000000000000000000, 0.000000000000000000 ) ) ;
#34 = DESIGN_CONTEXT ( 'detailed design', #83, 'design' ) ;
#35 = DIRECTION ( 'NONE',  ( 0.000000000000000000, 0.000000000000000000, 1.000000000000000000 ) ) ;
#36 = CIRCLE ( 'NONE', #183, 13.00000000000000178 ) ;
#37 = VERTEX_POINT ( 'NONE', #231 ) ;
#38 = EDGE_CURVE ( 'NONE', #37, #117, #108, .T. ) ;
#39 = CARTESIAN_POINT ( 'NONE',  ( -13.00000000000000178, 0.000000000000000000, 8.000000000000000000 ) ) ;
#40 = DIRECTION ( 'NONE',  ( 1.000000000000000000, 0.000000000000000000, -0.000000000000000000 ) ) ;
#41 = EDGE_CURVE ( 'NONE', #177, #55, #1, .T. ) ;
#42 = DIRECTION ( 'NONE',  ( -0.000000000000000000, -0.000000000000000000, -1.000000000000000000 ) ) ;
#43 = DATE_AND_TIME ( #240, #173 ) ;
#44 = DIRECTION ( 'NONE',  ( 0.000000000000000000, 0.000000000000000000, 1.000000000000000000 ) ) ;
#45 = CALENDAR_DATE ( 2023, 12, 2 ) ;
#46 = CIRCLE ( 'NONE', #220, 13.00000000000000178 ) ;
#47 = PERSON_AND_ORGANIZATION_ROLE ( 'creator' ) ;
#48 = PRODUCT ( 'c5cb', 'c5cb', '', ( #14 ) ) ;
#49 = ORIENTED_EDGE ( 'NONE', *, *, #92, .F. ) ;
#50 = DATE_AND_TIME ( #53, #167 ) ;
#51 = DIRECTION ( 'NONE',  ( 0.000000000000000000, 0.000000000000000000, 1.000000000000000000 ) ) ;
#52 = DIRECTION ( 'NONE',  ( 1.000000000000000000, 0.000000000000000000, 0.000000000000000000 ) ) ;
#53 = CALENDAR_DATE ( 2023, 12, 2 ) ;
#54 =( NAMED_UNIT ( * ) PLANE_ANGLE_UNIT ( ) SI_UNIT ( $, .RADIAN. ) );
#55 = VERTEX_POINT ( 'NONE', #135 ) ;
#56 = CC_DESIGN_PERSON_AND_ORGANIZATION_ASSIGNMENT ( #222, #47, ( #13 ) ) ;
#57 = CC_DESIGN_SECURITY_CLASSIFICATION ( #251, ( #13 ) ) ;
#58 = CARTESIAN_POINT ( 'NONE',  ( 0.000000000000000000, 0.000000000000000000, 8.000000000000000000 ) ) ;
#59 = ORIENTED_EDGE ( 'NONE', *, *, #41, .T. ) ;
#60 = CARTESIAN_POINT ( 'NONE',  ( 0.000000000000000000, 0.000000000000000000, 500.0000000000000000 ) ) ;
#61 = LOCAL_TIME ( 11, 35, 22.00000000000000000, #77 ) ;
#62 = ORIENTED_EDGE ( 'NONE', *, *, #109, .F. ) ;
#63 = ADVANCED_FACE ( 'NONE', ( #113 ), #188, .T. ) ;
#64 = LINE ( 'NONE', #214, #206 ) ;
#65 = DIRECTION ( 'NONE',  ( -0.000000000000000000, -0.000000000000000000, -1.000000000000000000 ) ) ;
#66 = DIRECTION ( 'NONE',  ( -0.000000000000000000, -0.000000000000000000, -1.000000000000000000 ) ) ;
#67 = DIRECTION ( 'NONE',  ( -0.000000000000000000, -0.000000000000000000, -1.000000000000000000 ) ) ;
#68 = AXIS2_PLACEMENT_3D ( 'NONE', #60, #136, #121 ) ;
#69 = COORDINATED_UNIVERSAL_TIME_OFFSET ( 1, 0, .AHEAD. ) ;
#70 = APPROVAL_PERSON_ORGANIZATION ( #91, #32, #245 ) ;
#71 = PERSON ( 'NEURÈENÝ', 'NEURÈENÝ', 'NEURÈENÝ', ('NEURÈENÝ'), ('NEURÈENÝ'), ('NEURÈENÝ') ) ;
#72 = DIRECTION ( 'NONE',  ( 1.000000000000000000, 0.000000000000000000, 0.000000000000000000 ) ) ;
#73 = EDGE_CURVE ( 'NONE', #247, #213, #170, .T. ) ;
#74 = CALENDAR_DATE ( 2023, 12, 2 ) ;
#75 = VECTOR ( 'NONE', #67, 1000.000000000000000 ) ;
#76 = MANIFOLD_SOLID_BREP ( 'Pøidat vysunutím3', #244 ) ;
#77 = COORDINATED_UNIVERSAL_TIME_OFFSET ( 1, 0, .AHEAD. ) ;
#78 = CC_DESIGN_DATE_AND_TIME_ASSIGNMENT ( #43, #219, ( #197 ) ) ;
#79 = DIRECTION ( 'NONE',  ( -0.000000000000000000, -0.000000000000000000, -1.000000000000000000 ) ) ;
#80 = ORIENTED_EDGE ( 'NONE', *, *, #38, .T. ) ;
#81 = CIRCLE ( 'NONE', #164, 10.00000000000000178 ) ;
#82 = FACE_BOUND ( 'NONE', #146, .T. ) ;
#83 = APPLICATION_CONTEXT ( 'configuration controlled 3d designs of mechanical parts and assemblies' ) ;
#84 = DATE_AND_TIME ( #11, #61 ) ;
#85 = CARTESIAN_POINT ( 'NONE',  ( 13.00000000000000178, 1.592040838891559293E-15, 0.000000000000000000 ) ) ;
#86 = DIRECTION ( 'NONE',  ( -1.000000000000000000, 0.000000000000000000, 0.000000000000000000 ) ) ;
#87 = CIRCLE ( 'NONE', #209, 13.00000000000000178 ) ;
#88 = EDGE_CURVE ( 'NONE', #247, #55, #64, .T. ) ;
#89 = AXIS2_PLACEMENT_3D ( 'NONE', #58, #133, #33 ) ;
#90 = CARTESIAN_POINT ( 'NONE',  ( 0.000000000000000000, 0.000000000000000000, 0.000000000000000000 ) ) ;
#91 = PERSON_AND_ORGANIZATION ( #71, #225 ) ;
#92 = EDGE_CURVE ( 'NONE', #55, #177, #119, .T. ) ;
#93 = ORIENTED_EDGE ( 'NONE', *, *, #114, .T. ) ;
#94 = CARTESIAN_POINT ( 'NONE',  ( -13.00000000000000178, 0.000000000000000000, 0.000000000000000000 ) ) ;
#95 = EDGE_LOOP ( 'NONE', ( #208, #138, #252, #255 ) ) ;
#96 = CC_DESIGN_APPROVAL ( #32, ( #197 ) ) ;
#97 = AXIS2_PLACEMENT_3D ( 'NONE', #238, #237, #218 ) ;
#98 = DIRECTION ( 'NONE',  ( -1.000000000000000000, 0.000000000000000000, 0.000000000000000000 ) ) ;
#99 = CARTESIAN_POINT ( 'NONE',  ( 0.000000000000000000, 0.000000000000000000, 8.000000000000000000 ) ) ;
#100 = CARTESIAN_POINT ( 'NONE',  ( 0.000000000000000000, 0.000000000000000000, 8.000000000000000000 ) ) ;
#101 = CARTESIAN_POINT ( 'NONE',  ( 0.000000000000000000, 0.000000000000000000, 500.0000000000000000 ) ) ;
#102 = EDGE_CURVE ( 'NONE', #117, #26, #128, .T. ) ;
#103 = ORIENTED_EDGE ( 'NONE', *, *, #23, .F. ) ;
#104 = PERSON_AND_ORGANIZATION_ROLE ( 'design_supplier' ) ;
#105 = ADVANCED_FACE ( 'NONE', ( #24 ), #118, .T. ) ;
#106 = EDGE_LOOP ( 'NONE', ( #62, #17, #187, #166 ) ) ;
#107 = DIRECTION ( 'NONE',  ( -0.000000000000000000, -0.000000000000000000, -1.000000000000000000 ) ) ;
#108 = CIRCLE ( 'NONE', #89, 13.00000000000000178 ) ;
#109 = EDGE_CURVE ( 'NONE', #37, #178, #191, .T. ) ;
#110 = DIRECTION ( 'NONE',  ( 0.000000000000000000, 0.000000000000000000, 1.000000000000000000 ) ) ;
#111 = CARTESIAN_POINT ( 'NONE',  ( 0.000000000000000000, 0.000000000000000000, 8.000000000000000000 ) ) ;
#112 = ADVANCED_BREP_SHAPE_REPRESENTATION ( 'c5cb', ( #76, #189 ), #20 ) ;
#113 = FACE_OUTER_BOUND ( 'NONE', #95, .T. ) ;
#114 = EDGE_CURVE ( 'NONE', #117, #37, #87, .T. ) ;
#115 = PERSON_AND_ORGANIZATION_ROLE ( 'creator' ) ;
#116 = APPROVAL_PERSON_ORGANIZATION ( #156, #192, #6 ) ;
#117 = VERTEX_POINT ( 'NONE', #153 ) ;
#118 = CYLINDRICAL_SURFACE ( 'NONE', #212, 10.00000000000000178 ) ;
#119 = CIRCLE ( 'NONE', #127, 10.00000000000000178 ) ;
#120 = ADVANCED_FACE ( 'NONE', ( #82, #21 ), #155, .T. ) ;
#121 = DIRECTION ( 'NONE',  ( 1.000000000000000000, 0.000000000000000000, 0.000000000000000000 ) ) ;
#122 = APPROVAL_DATE_TIME ( #84, #32 ) ;
#123 = DIRECTION ( 'NONE',  ( -0.000000000000000000, -0.000000000000000000, -1.000000000000000000 ) ) ;
#124 = FACE_OUTER_BOUND ( 'NONE', #151, .T. ) ;
#125 = ORIENTED_EDGE ( 'NONE', *, *, #3, .F. ) ;
#126 = COORDINATED_UNIVERSAL_TIME_OFFSET ( 1, 0, .AHEAD. ) ;
#127 = AXIS2_PLACEMENT_3D ( 'NONE', #172, #51, #159 ) ;
#128 = LINE ( 'NONE', #39, #249 ) ;
#129 = DATE_TIME_ROLE ( 'classification_date' ) ;
#130 = EDGE_LOOP ( 'NONE', ( #235, #103, #226, #59 ) ) ;
#131 = EDGE_LOOP ( 'NONE', ( #93, #80 ) ) ;
#132 = CC_DESIGN_APPROVAL ( #192, ( #13 ) ) ;
#133 = DIRECTION ( 'NONE',  ( 0.000000000000000000, 0.000000000000000000, 1.000000000000000000 ) ) ;
#134 = CC_DESIGN_DATE_AND_TIME_ASSIGNMENT ( #50, #129, ( #251 ) ) ;
#135 = CARTESIAN_POINT ( 'NONE',  ( 10.00000000000000178, 1.224646799147353454E-15, 8.000000000000000000 ) ) ;
#136 = DIRECTION ( 'NONE',  ( 0.000000000000000000, 0.000000000000000000, 1.000000000000000000 ) ) ;
#137 = AXIS2_PLACEMENT_3D ( 'NONE', #90, #162, #239 ) ;
#138 = ORIENTED_EDGE ( 'NONE', *, *, #88, .T. ) ;
#139 = APPROVAL_PERSON_ORGANIZATION ( #144, #233, #243 ) ;
#140 = CARTESIAN_POINT ( 'NONE',  ( -10.00000000000000178, 0.000000000000000000, 500.0000000000000000 ) ) ;
#141 = CC_DESIGN_PERSON_AND_ORGANIZATION_ASSIGNMENT ( #181, #204, ( #48 ) ) ;
#142 = FACE_OUTER_BOUND ( 'NONE', #205, .T. ) ;
#143 = DATE_AND_TIME ( #45, #241 ) ;
#144 = PERSON_AND_ORGANIZATION ( #71, #225 ) ;
#145 = CARTESIAN_POINT ( 'NONE',  ( -10.00000000000000178, 0.000000000000000000, 500.0000000000000000 ) ) ;
#146 = EDGE_LOOP ( 'NONE', ( #160, #49 ) ) ;
#147 = DIRECTION ( 'NONE',  ( 1.000000000000000000, 0.000000000000000000, 0.000000000000000000 ) ) ;
#148 = CARTESIAN_POINT ( 'NONE',  ( 0.000000000000000000, 0.000000000000000000, 500.0000000000000000 ) ) ;
#149 = ORIENTED_EDGE ( 'NONE', *, *, #23, .T. ) ;
#150 = APPLICATION_CONTEXT ( 'configuration controlled 3d designs of mechanical parts and assemblies' ) ;
#151 = EDGE_LOOP ( 'NONE', ( #229, #221, #223, #165 ) ) ;
#152 = CC_DESIGN_APPROVAL ( #233, ( #251 ) ) ;
#153 = CARTESIAN_POINT ( 'NONE',  ( -13.00000000000000178, 0.000000000000000000, 8.000000000000000000 ) ) ;
#154 = CC_DESIGN_PERSON_AND_ORGANIZATION_ASSIGNMENT ( #161, #163, ( #251 ) ) ;
#155 = PLANE ( 'NONE',  #97 ) ;
#156 = PERSON_AND_ORGANIZATION ( #71, #225 ) ;
#157 = FACE_OUTER_BOUND ( 'NONE', #190, .T. ) ;
#158 = ADVANCED_FACE ( 'NONE', ( #142 ), #8, .T. ) ;
#159 = DIRECTION ( 'NONE',  ( 1.000000000000000000, 0.000000000000000000, 0.000000000000000000 ) ) ;
#160 = ORIENTED_EDGE ( 'NONE', *, *, #41, .F. ) ;
#161 = PERSON_AND_ORGANIZATION ( #71, #225 ) ;
#162 = DIRECTION ( 'NONE',  ( 0.000000000000000000, 0.000000000000000000, 1.000000000000000000 ) ) ;
#163 = PERSON_AND_ORGANIZATION_ROLE ( 'classification_officer' ) ;
#164 = AXIS2_PLACEMENT_3D ( 'NONE', #148, #15, #248 ) ;
#165 = ORIENTED_EDGE ( 'NONE', *, *, #102, .F. ) ;
#166 = ORIENTED_EDGE ( 'NONE', *, *, #28, .T. ) ;
#167 = LOCAL_TIME ( 11, 35, 22.00000000000000000, #126 ) ;
#168 = DIRECTION ( 'NONE',  ( 0.000000000000000000, 0.000000000000000000, 1.000000000000000000 ) ) ;
#169 = COORDINATED_UNIVERSAL_TIME_OFFSET ( 1, 0, .AHEAD. ) ;
#170 = CIRCLE ( 'NONE', #68, 10.00000000000000178 ) ;
#171 = DIRECTION ( 'NONE',  ( -1.000000000000000000, 0.000000000000000000, 0.000000000000000000 ) ) ;
#172 = CARTESIAN_POINT ( 'NONE',  ( 0.000000000000000000, 0.000000000000000000, 8.000000000000000000 ) ) ;
#173 = LOCAL_TIME ( 11, 35, 22.00000000000000000, #169 ) ;
#174 = PRODUCT_DEFINITION_SHAPE ( 'NONE', 'NONE',  #197 ) ;
#175 = CARTESIAN_POINT ( 'NONE',  ( 0.000000000000000000, 0.000000000000000000, 8.000000000000000000 ) ) ;
#176 = ADVANCED_FACE ( 'NONE', ( #124 ), #217, .T. ) ;
#177 = VERTEX_POINT ( 'NONE', #4 ) ;
#178 = VERTEX_POINT ( 'NONE', #85 ) ;
#179 = PRODUCT_RELATED_PRODUCT_CATEGORY ( 'detail', '', ( #48 ) ) ;
#180 = PERSON_AND_ORGANIZATION ( #71, #225 ) ;
#181 = PERSON_AND_ORGANIZATION ( #71, #225 ) ;
#182 = UNCERTAINTY_MEASURE_WITH_UNIT (LENGTH_MEASURE( 1.000000000000000082E-05 ), #228, 'distance_accuracy_value', 'NONE');
#183 = AXIS2_PLACEMENT_3D ( 'NONE', #31, #110, #186 ) ;
#184 = DIRECTION ( 'NONE',  ( 0.000000000000000000, 0.000000000000000000, 1.000000000000000000 ) ) ;
#185 = APPLICATION_PROTOCOL_DEFINITION ( 'international standard', 'config_control_design', 1994, #150 ) ;
#186 = DIRECTION ( 'NONE',  ( 1.000000000000000000, 0.000000000000000000, 0.000000000000000000 ) ) ;
#187 = ORIENTED_EDGE ( 'NONE', *, *, #102, .T. ) ;
#188 = CYLINDRICAL_SURFACE ( 'NONE', #29, 10.00000000000000178 ) ;
#189 = AXIS2_PLACEMENT_3D ( 'NONE', #202, #184, #52 ) ;
#190 = EDGE_LOOP ( 'NONE', ( #18, #125 ) ) ;
#191 = LINE ( 'NONE', #2, #75 ) ;
#192 = APPROVAL ( #194, 'NEURÈENÝ' ) ;
#193 = CARTESIAN_POINT ( 'NONE',  ( 10.00000000000000178, 1.224646799147353454E-15, 500.0000000000000000 ) ) ;
#194 = APPROVAL_STATUS ( 'not_yet_approved' ) ;
#195 = PLANE ( 'NONE',  #137 ) ;
#196 = APPROVAL_DATE_TIME ( #143, #192 ) ;
#197 = PRODUCT_DEFINITION ( 'NEZNÁMÝ', '', #13, #34 ) ;
#198 = PERSON_AND_ORGANIZATION ( #71, #225 ) ;
#199 = COORDINATED_UNIVERSAL_TIME_OFFSET ( 1, 0, .AHEAD. ) ;
#200 = CYLINDRICAL_SURFACE ( 'NONE', #236, 13.00000000000000178 ) ;
#201 = ADVANCED_FACE ( 'NONE', ( #157 ), #195, .F. ) ;
#202 = CARTESIAN_POINT ( 'NONE',  ( 0.000000000000000000, 0.000000000000000000, 0.000000000000000000 ) ) ;
#203 = APPROVAL_STATUS ( 'not_yet_approved' ) ;
#204 = PERSON_AND_ORGANIZATION_ROLE ( 'design_owner' ) ;
#205 = EDGE_LOOP ( 'NONE', ( #149, #30 ) ) ;
#206 = VECTOR ( 'NONE', #65, 1000.000000000000000 ) ;
#207 = VECTOR ( 'NONE', #123, 1000.000000000000000 ) ;
#208 = ORIENTED_EDGE ( 'NONE', *, *, #73, .F. ) ;
#209 = AXIS2_PLACEMENT_3D ( 'NONE', #175, #19, #72 ) ;
#210 =( NAMED_UNIT ( * ) SI_UNIT ( $, .STERADIAN. ) SOLID_ANGLE_UNIT ( ) );
#211 = CC_DESIGN_PERSON_AND_ORGANIZATION_ASSIGNMENT ( #180, #115, ( #197 ) ) ;
#212 = AXIS2_PLACEMENT_3D ( 'NONE', #101, #107, #98 ) ;
#213 = VERTEX_POINT ( 'NONE', #140 ) ;
#214 = CARTESIAN_POINT ( 'NONE',  ( 10.00000000000000178, 1.224646799147353454E-15, 500.0000000000000000 ) ) ;
#215 = CARTESIAN_POINT ( 'NONE',  ( 0.000000000000000000, 0.000000000000000000, 500.0000000000000000 ) ) ;
#216 = AXIS2_PLACEMENT_3D ( 'NONE', #215, #44, #40 ) ;
#217 = CYLINDRICAL_SURFACE ( 'NONE', #25, 13.00000000000000178 ) ;
#218 = DIRECTION ( 'NONE',  ( 1.000000000000000000, 0.000000000000000000, -0.000000000000000000 ) ) ;
#219 = DATE_TIME_ROLE ( 'creation_date' ) ;
#220 = AXIS2_PLACEMENT_3D ( 'NONE', #16, #168, #147 ) ;
#221 = ORIENTED_EDGE ( 'NONE', *, *, #109, .T. ) ;
#222 = PERSON_AND_ORGANIZATION ( #71, #225 ) ;
#223 = ORIENTED_EDGE ( 'NONE', *, *, #3, .T. ) ;
#224 = APPROVAL_DATE_TIME ( #27, #233 ) ;
#225 = ORGANIZATION ( 'NEURÈENÝ', 'NEURÈENÝ', '' ) ;
#226 = ORIENTED_EDGE ( 'NONE', *, *, #246, .T. ) ;
#227 = SECURITY_CLASSIFICATION_LEVEL ( 'unclassified' ) ;
#228 =( LENGTH_UNIT ( ) NAMED_UNIT ( * ) SI_UNIT ( .MILLI., .METRE. ) );
#229 = ORIENTED_EDGE ( 'NONE', *, *, #38, .F. ) ;
#230 = AXIS2_PLACEMENT_3D ( 'NONE', #111, #35, #232 ) ;
#231 = CARTESIAN_POINT ( 'NONE',  ( 13.00000000000000178, 1.592040838891559293E-15, 8.000000000000000000 ) ) ;
#232 = DIRECTION ( 'NONE',  ( 1.000000000000000000, 0.000000000000000000, 0.000000000000000000 ) ) ;
#233 = APPROVAL ( #203, 'NEURÈENÝ' ) ;
#234 = DIRECTION ( 'NONE',  ( -1.000000000000000000, 0.000000000000000000, 0.000000000000000000 ) ) ;
#235 = ORIENTED_EDGE ( 'NONE', *, *, #88, .F. ) ;
#236 = AXIS2_PLACEMENT_3D ( 'NONE', #100, #5, #86 ) ;
#237 = DIRECTION ( 'NONE',  ( 0.000000000000000000, 0.000000000000000000, 1.000000000000000000 ) ) ;
#238 = CARTESIAN_POINT ( 'NONE',  ( 0.000000000000000000, 0.000000000000000000, 8.000000000000000000 ) ) ;
#239 = DIRECTION ( 'NONE',  ( 1.000000000000000000, 0.000000000000000000, -0.000000000000000000 ) ) ;
#240 = CALENDAR_DATE ( 2023, 12, 2 ) ;
#241 = LOCAL_TIME ( 11, 35, 22.00000000000000000, #69 ) ;
#242 = LINE ( 'NONE', #145, #207 ) ;
#243 = APPROVAL_ROLE ( '' ) ;
#244 = CLOSED_SHELL ( 'NONE', ( #63, #176, #253, #120, #201, #105, #158 ) ) ;
#245 = APPROVAL_ROLE ( '' ) ;
#246 = EDGE_CURVE ( 'NONE', #213, #177, #242, .T. ) ;
#247 = VERTEX_POINT ( 'NONE', #193 ) ;
#248 = DIRECTION ( 'NONE',  ( 1.000000000000000000, 0.000000000000000000, 0.000000000000000000 ) ) ;
#249 = VECTOR ( 'NONE', #66, 1000.000000000000000 ) ;
#250 = APPLICATION_PROTOCOL_DEFINITION ( 'international standard', 'config_control_design', 1994, #83 ) ;
#251 = SECURITY_CLASSIFICATION ( '', '', #227 ) ;
#252 = ORIENTED_EDGE ( 'NONE', *, *, #92, .T. ) ;
#253 = ADVANCED_FACE ( 'NONE', ( #22 ), #200, .T. ) ;
#254 = CARTESIAN_POINT ( 'NONE',  ( 0.000000000000000000, 0.000000000000000000, 500.0000000000000000 ) ) ;
#255 = ORIENTED_EDGE ( 'NONE', *, *, #246, .F. ) ;
ENDSEC;
END-ISO-10303-21;
