ISO-10303-21;
HEADER;
FILE_DESCRIPTION (( 'STEP AP203' ),
    '1' );
FILE_NAME ('e10a.STEP',
    '2023-02-12T11:53:13',
    ( '' ),
    ( '' ),
    'SwSTEP 2.0',
    'SolidWorks 2019',
    '' );
FILE_SCHEMA (( 'CONFIG_CONTROL_DESIGN' ));
ENDSEC;

DATA;
#1 = VERTEX_POINT ( 'NONE', #188 ) ;
#2 = AXIS2_PLACEMENT_3D ( 'NONE', #180, #5, #86 ) ;
#3 = ORIENTED_EDGE ( 'NONE', *, *, #122, .T. ) ;
#4 = CIRCLE ( 'NONE', #148, 2.250000000000000000 ) ;
#5 = DIRECTION ( 'NONE',  ( -0.000000000000000000, -0.000000000000000000, -1.000000000000000000 ) ) ;
#6 = PRODUCT_DEFINITION_FORMATION_WITH_SPECIFIED_SOURCE ( 'LIBOVOLNÝ', '', #10, .NOT_KNOWN. ) ;
#7 = SHAPE_DEFINITION_REPRESENTATION ( #15, #68 ) ;
#8 = MECHANICAL_CONTEXT ( 'NONE', #96, 'mechanical' ) ;
#9 = DIRECTION ( 'NONE',  ( 0.000000000000000000, 0.000000000000000000, 1.000000000000000000 ) ) ;
#10 = PRODUCT ( 'e10a', 'e10a', '', ( #8 ) ) ;
#11 = APPROVAL_STATUS ( 'not_yet_approved' ) ;
#12 = DIRECTION ( 'NONE',  ( -0.000000000000000000, -0.000000000000000000, -1.000000000000000000 ) ) ;
#13 = SECURITY_CLASSIFICATION_LEVEL ( 'unclassified' ) ;
#14 = CARTESIAN_POINT ( 'NONE',  ( 4.000000000000000000, 4.898587196589412829E-16, 3.000000000000000000 ) ) ;
#15 = PRODUCT_DEFINITION_SHAPE ( 'NONE', 'NONE',  #239 ) ;
#16 = PERSON_AND_ORGANIZATION_ROLE ( 'creator' ) ;
#17 = FACE_OUTER_BOUND ( 'NONE', #118, .T. ) ;
#18 = EDGE_CURVE ( 'NONE', #72, #173, #41, .T. ) ;
#19 = PLANE ( 'NONE',  #224 ) ;
#20 = CC_DESIGN_PERSON_AND_ORGANIZATION_ASSIGNMENT ( #244, #76, ( #6 ) ) ;
#21 = AXIS2_PLACEMENT_3D ( 'NONE', #115, #196, #52 ) ;
#22 = LOCAL_TIME ( 12, 53, 13.00000000000000000, #163 ) ;
#23 = CARTESIAN_POINT ( 'NONE',  ( 0.000000000000000000, 0.000000000000000000, 0.000000000000000000 ) ) ;
#24 = EDGE_LOOP ( 'NONE', ( #85, #201, #43, #199 ) ) ;
#25 = CLOSED_SHELL ( 'NONE', ( #141, #28, #159, #192, #198, #81, #35 ) ) ;
#26 = DIRECTION ( 'NONE',  ( 0.000000000000000000, 0.000000000000000000, 1.000000000000000000 ) ) ;
#27 = DIRECTION ( 'NONE',  ( 0.000000000000000000, 0.000000000000000000, 1.000000000000000000 ) ) ;
#28 = ADVANCED_FACE ( 'NONE', ( #207 ), #29, .T. ) ;
#29 = CYLINDRICAL_SURFACE ( 'NONE', #2, 4.000000000000000000 ) ;
#30 = DIRECTION ( 'NONE',  ( 0.000000000000000000, 0.000000000000000000, 1.000000000000000000 ) ) ;
#31 = CARTESIAN_POINT ( 'NONE',  ( -4.000000000000000000, 0.000000000000000000, 3.000000000000000000 ) ) ;
#32 = PERSON_AND_ORGANIZATION ( #171, #229 ) ;
#33 = ORIENTED_EDGE ( 'NONE', *, *, #243, .F. ) ;
#34 = ORIENTED_EDGE ( 'NONE', *, *, #54, .F. ) ;
#35 = ADVANCED_FACE ( 'NONE', ( #160 ), #242, .T. ) ;
#36 = APPLICATION_CONTEXT ( 'configuration controlled 3d designs of mechanical parts and assemblies' ) ;
#37 = PERSON_AND_ORGANIZATION_ROLE ( 'creator' ) ;
#38 = PLANE ( 'NONE',  #228 ) ;
#39 = DIRECTION ( 'NONE',  ( 0.000000000000000000, 0.000000000000000000, 1.000000000000000000 ) ) ;
#40 = EDGE_CURVE ( 'NONE', #173, #72, #88, .T. ) ;
#41 = CIRCLE ( 'NONE', #178, 2.250000000000000000 ) ;
#42 = APPLICATION_PROTOCOL_DEFINITION ( 'international standard', 'config_control_design', 1994, #96 ) ;
#43 = ORIENTED_EDGE ( 'NONE', *, *, #186, .T. ) ;
#44 = EDGE_LOOP ( 'NONE', ( #139, #83 ) ) ;
#45 =( NAMED_UNIT ( * ) PLANE_ANGLE_UNIT ( ) SI_UNIT ( $, .RADIAN. ) );
#46 = LOCAL_TIME ( 12, 53, 13.00000000000000000, #53 ) ;
#47 = VERTEX_POINT ( 'NONE', #208 ) ;
#48 = AXIS2_PLACEMENT_3D ( 'NONE', #97, #156, #152 ) ;
#49 = VERTEX_POINT ( 'NONE', #78 ) ;
#50 = DIRECTION ( 'NONE',  ( 0.000000000000000000, 0.000000000000000000, 1.000000000000000000 ) ) ;
#51 = CC_DESIGN_SECURITY_CLASSIFICATION ( #120, ( #6 ) ) ;
#52 = DIRECTION ( 'NONE',  ( 1.000000000000000000, 0.000000000000000000, 0.000000000000000000 ) ) ;
#53 = COORDINATED_UNIVERSAL_TIME_OFFSET ( 1, 0, .AHEAD. ) ;
#54 = EDGE_CURVE ( 'NONE', #1, #103, #114, .T. ) ;
#55 = DATE_AND_TIME ( #210, #89 ) ;
#56 = CARTESIAN_POINT ( 'NONE',  ( 0.000000000000000000, 0.000000000000000000, 0.000000000000000000 ) ) ;
#57 = DIRECTION ( 'NONE',  ( 0.000000000000000000, 0.000000000000000000, 1.000000000000000000 ) ) ;
#58 = CARTESIAN_POINT ( 'NONE',  ( -4.000000000000000000, 0.000000000000000000, 0.000000000000000000 ) ) ;
#59 = LOCAL_TIME ( 12, 53, 13.00000000000000000, #187 ) ;
#60 =( NAMED_UNIT ( * ) SI_UNIT ( $, .STERADIAN. ) SOLID_ANGLE_UNIT ( ) );
#61 = ORIENTED_EDGE ( 'NONE', *, *, #186, .F. ) ;
#62 = ORIENTED_EDGE ( 'NONE', *, *, #153, .T. ) ;
#63 = APPROVAL ( #184, 'NEURÈENÝ' ) ;
#64 = ORIENTED_EDGE ( 'NONE', *, *, #168, .T. ) ;
#65 = APPROVAL ( #11, 'NEURÈENÝ' ) ;
#66 = ORIENTED_EDGE ( 'NONE', *, *, #18, .F. ) ;
#67 = ORIENTED_EDGE ( 'NONE', *, *, #40, .F. ) ;
#68 = ADVANCED_BREP_SHAPE_REPRESENTATION ( 'e10a', ( #135, #77 ), #136 ) ;
#69 = DATE_AND_TIME ( #108, #46 ) ;
#70 = VECTOR ( 'NONE', #130, 1000.000000000000000 ) ;
#71 = APPROVAL_DATE_TIME ( #55, #63 ) ;
#72 = VERTEX_POINT ( 'NONE', #217 ) ;
#73 = CIRCLE ( 'NONE', #102, 4.000000000000000000 ) ;
#74 = APPROVAL_ROLE ( '' ) ;
#75 = DIRECTION ( 'NONE',  ( 1.000000000000000000, 0.000000000000000000, 0.000000000000000000 ) ) ;
#76 = PERSON_AND_ORGANIZATION_ROLE ( 'design_supplier' ) ;
#77 = AXIS2_PLACEMENT_3D ( 'NONE', #23, #250, #90 ) ;
#78 = CARTESIAN_POINT ( 'NONE',  ( -4.000000000000000000, 0.000000000000000000, 3.000000000000000000 ) ) ;
#79 = CARTESIAN_POINT ( 'NONE',  ( 2.250000000000000000, 2.755455298081544285E-16, 200.0000000000000000 ) ) ;
#80 = FACE_BOUND ( 'NONE', #126, .T. ) ;
#81 = ADVANCED_FACE ( 'NONE', ( #193 ), #150, .T. ) ;
#82 = DIRECTION ( 'NONE',  ( 1.000000000000000000, 0.000000000000000000, -0.000000000000000000 ) ) ;
#83 = ORIENTED_EDGE ( 'NONE', *, *, #95, .T. ) ;
#84 = ORIENTED_EDGE ( 'NONE', *, *, #218, .F. ) ;
#85 = ORIENTED_EDGE ( 'NONE', *, *, #168, .F. ) ;
#86 = DIRECTION ( 'NONE',  ( -1.000000000000000000, 0.000000000000000000, 0.000000000000000000 ) ) ;
#87 = VECTOR ( 'NONE', #215, 1000.000000000000000 ) ;
#88 = CIRCLE ( 'NONE', #232, 2.250000000000000000 ) ;
#89 = LOCAL_TIME ( 12, 53, 13.00000000000000000, #191 ) ;
#90 = DIRECTION ( 'NONE',  ( 1.000000000000000000, 0.000000000000000000, 0.000000000000000000 ) ) ;
#91 = DIRECTION ( 'NONE',  ( -1.000000000000000000, 0.000000000000000000, 0.000000000000000000 ) ) ;
#92 = PERSON_AND_ORGANIZATION_ROLE ( 'classification_officer' ) ;
#93 = FACE_OUTER_BOUND ( 'NONE', #185, .T. ) ;
#94 = AXIS2_PLACEMENT_3D ( 'NONE', #234, #254, #110 ) ;
#95 = EDGE_CURVE ( 'NONE', #101, #47, #119, .T. ) ;
#96 = APPLICATION_CONTEXT ( 'configuration controlled 3d designs of mechanical parts and assemblies' ) ;
#97 = CARTESIAN_POINT ( 'NONE',  ( 0.000000000000000000, 0.000000000000000000, 200.0000000000000000 ) ) ;
#98 = EDGE_CURVE ( 'NONE', #47, #101, #4, .T. ) ;
#99 = ORIENTED_EDGE ( 'NONE', *, *, #153, .F. ) ;
#100 = ORIENTED_EDGE ( 'NONE', *, *, #95, .F. ) ;
#101 = VERTEX_POINT ( 'NONE', #117 ) ;
#102 = AXIS2_PLACEMENT_3D ( 'NONE', #56, #216, #75 ) ;
#103 = VERTEX_POINT ( 'NONE', #166 ) ;
#104 = DIRECTION ( 'NONE',  ( 1.000000000000000000, 0.000000000000000000, -0.000000000000000000 ) ) ;
#105 = CC_DESIGN_DATE_AND_TIME_ASSIGNMENT ( #69, #162, ( #239 ) ) ;
#106 = APPROVAL_STATUS ( 'not_yet_approved' ) ;
#107 = ORIENTED_EDGE ( 'NONE', *, *, #54, .T. ) ;
#108 = CALENDAR_DATE ( 2023, 12, 2 ) ;
#109 = DATE_AND_TIME ( #151, #59 ) ;
#110 = DIRECTION ( 'NONE',  ( -1.000000000000000000, 0.000000000000000000, 0.000000000000000000 ) ) ;
#111 = APPROVAL_DATE_TIME ( #165, #65 ) ;
#112 = CARTESIAN_POINT ( 'NONE',  ( 0.000000000000000000, 0.000000000000000000, 3.000000000000000000 ) ) ;
#113 = DESIGN_CONTEXT ( 'detailed design', #36, 'design' ) ;
#114 = LINE ( 'NONE', #14, #237 ) ;
#115 = CARTESIAN_POINT ( 'NONE',  ( 0.000000000000000000, 0.000000000000000000, 3.000000000000000000 ) ) ;
#116 = CIRCLE ( 'NONE', #177, 4.000000000000000000 ) ;
#117 = CARTESIAN_POINT ( 'NONE',  ( 2.250000000000000000, 2.755455298081544285E-16, 200.0000000000000000 ) ) ;
#118 = EDGE_LOOP ( 'NONE', ( #249, #222 ) ) ;
#119 = CIRCLE ( 'NONE', #154, 2.250000000000000000 ) ;
#120 = SECURITY_CLASSIFICATION ( '', '', #13 ) ;
#121 = CARTESIAN_POINT ( 'NONE',  ( 0.000000000000000000, 0.000000000000000000, 200.0000000000000000 ) ) ;
#122 = EDGE_CURVE ( 'NONE', #103, #140, #73, .T. ) ;
#123 = DIRECTION ( 'NONE',  ( 1.000000000000000000, 0.000000000000000000, 0.000000000000000000 ) ) ;
#124 = CC_DESIGN_APPROVAL ( #133, ( #120 ) ) ;
#125 = PERSON_AND_ORGANIZATION ( #171, #229 ) ;
#126 = EDGE_LOOP ( 'NONE', ( #66, #67 ) ) ;
#127 = DATE_TIME_ROLE ( 'classification_date' ) ;
#128 = FACE_OUTER_BOUND ( 'NONE', #220, .T. ) ;
#129 = CALENDAR_DATE ( 2023, 12, 2 ) ;
#130 = DIRECTION ( 'NONE',  ( -0.000000000000000000, -0.000000000000000000, -1.000000000000000000 ) ) ;
#131 = APPROVAL_ROLE ( '' ) ;
#132 = LINE ( 'NONE', #79, #87 ) ;
#133 = APPROVAL ( #106, 'NEURÈENÝ' ) ;
#134 = DIRECTION ( 'NONE',  ( 1.000000000000000000, 0.000000000000000000, 0.000000000000000000 ) ) ;
#135 = MANIFOLD_SOLID_BREP ( 'Pøidat vysunutím3', #25 ) ;
#136 =( GEOMETRIC_REPRESENTATION_CONTEXT ( 3 ) GLOBAL_UNCERTAINTY_ASSIGNED_CONTEXT ( ( #214 ) ) GLOBAL_UNIT_ASSIGNED_CONTEXT ( ( #157, #45, #60 ) ) REPRESENTATION_CONTEXT ( 'NONE', 'WORKASPACE' ) );
#137 = CIRCLE ( 'NONE', #21, 4.000000000000000000 ) ;
#138 = DIRECTION ( 'NONE',  ( 1.000000000000000000, 0.000000000000000000, 0.000000000000000000 ) ) ;
#139 = ORIENTED_EDGE ( 'NONE', *, *, #98, .T. ) ;
#140 = VERTEX_POINT ( 'NONE', #58 ) ;
#141 = ADVANCED_FACE ( 'NONE', ( #93 ), #197, .T. ) ;
#142 = CARTESIAN_POINT ( 'NONE',  ( 0.000000000000000000, 0.000000000000000000, 3.000000000000000000 ) ) ;
#143 = DATE_AND_TIME ( #129, #195 ) ;
#144 = PERSON_AND_ORGANIZATION ( #171, #229 ) ;
#145 = APPROVAL_DATE_TIME ( #109, #133 ) ;
#146 = CC_DESIGN_PERSON_AND_ORGANIZATION_ASSIGNMENT ( #125, #16, ( #239 ) ) ;
#147 = DIRECTION ( 'NONE',  ( 1.000000000000000000, 0.000000000000000000, 0.000000000000000000 ) ) ;
#148 = AXIS2_PLACEMENT_3D ( 'NONE', #252, #231, #170 ) ;
#149 = APPROVAL_ROLE ( '' ) ;
#150 = CYLINDRICAL_SURFACE ( 'NONE', #48, 2.250000000000000000 ) ;
#151 = CALENDAR_DATE ( 2023, 12, 2 ) ;
#152 = DIRECTION ( 'NONE',  ( -1.000000000000000000, 0.000000000000000000, 0.000000000000000000 ) ) ;
#153 = EDGE_CURVE ( 'NONE', #1, #49, #137, .T. ) ;
#154 = AXIS2_PLACEMENT_3D ( 'NONE', #190, #57, #134 ) ;
#155 = LINE ( 'NONE', #251, #70 ) ;
#156 = DIRECTION ( 'NONE',  ( -0.000000000000000000, -0.000000000000000000, -1.000000000000000000 ) ) ;
#157 =( LENGTH_UNIT ( ) NAMED_UNIT ( * ) SI_UNIT ( .MILLI., .METRE. ) );
#158 = CC_DESIGN_PERSON_AND_ORGANIZATION_ASSIGNMENT ( #245, #37, ( #6 ) ) ;
#159 = ADVANCED_FACE ( 'NONE', ( #128 ), #233, .T. ) ;
#160 = FACE_OUTER_BOUND ( 'NONE', #44, .T. ) ;
#161 = ORIENTED_EDGE ( 'NONE', *, *, #218, .T. ) ;
#162 = DATE_TIME_ROLE ( 'creation_date' ) ;
#163 = COORDINATED_UNIVERSAL_TIME_OFFSET ( 1, 0, .AHEAD. ) ;
#164 = PERSON_AND_ORGANIZATION ( #171, #229 ) ;
#165 = DATE_AND_TIME ( #247, #22 ) ;
#166 = CARTESIAN_POINT ( 'NONE',  ( 4.000000000000000000, 4.898587196589412829E-16, 0.000000000000000000 ) ) ;
#167 = COORDINATED_UNIVERSAL_TIME_OFFSET ( 1, 0, .AHEAD. ) ;
#168 = EDGE_CURVE ( 'NONE', #101, #173, #132, .T. ) ;
#169 = CARTESIAN_POINT ( 'NONE',  ( 0.000000000000000000, 0.000000000000000000, 0.000000000000000000 ) ) ;
#170 = DIRECTION ( 'NONE',  ( 1.000000000000000000, 0.000000000000000000, 0.000000000000000000 ) ) ;
#171 = PERSON ( 'NEURÈENÝ', 'NEURÈENÝ', 'NEURÈENÝ', ('NEURÈENÝ'), ('NEURÈENÝ'), ('NEURÈENÝ') ) ;
#172 = AXIS2_PLACEMENT_3D ( 'NONE', #219, #26, #205 ) ;
#173 = VERTEX_POINT ( 'NONE', #227 ) ;
#174 = CC_DESIGN_PERSON_AND_ORGANIZATION_ASSIGNMENT ( #144, #92, ( #120 ) ) ;
#175 = DIRECTION ( 'NONE',  ( -0.000000000000000000, -0.000000000000000000, -1.000000000000000000 ) ) ;
#176 = EDGE_LOOP ( 'NONE', ( #99, #107, #3, #33 ) ) ;
#177 = AXIS2_PLACEMENT_3D ( 'NONE', #255, #27, #138 ) ;
#178 = AXIS2_PLACEMENT_3D ( 'NONE', #142, #9, #147 ) ;
#179 = PRODUCT_RELATED_PRODUCT_CATEGORY ( 'detail', '', ( #10 ) ) ;
#180 = CARTESIAN_POINT ( 'NONE',  ( 0.000000000000000000, 0.000000000000000000, 3.000000000000000000 ) ) ;
#181 = APPROVAL_PERSON_ORGANIZATION ( #32, #63, #74 ) ;
#182 = CARTESIAN_POINT ( 'NONE',  ( 0.000000000000000000, 0.000000000000000000, 3.000000000000000000 ) ) ;
#183 = EDGE_LOOP ( 'NONE', ( #161, #62 ) ) ;
#184 = APPROVAL_STATUS ( 'not_yet_approved' ) ;
#185 = EDGE_LOOP ( 'NONE', ( #100, #64, #221, #61 ) ) ;
#186 = EDGE_CURVE ( 'NONE', #47, #72, #155, .T. ) ;
#187 = COORDINATED_UNIVERSAL_TIME_OFFSET ( 1, 0, .AHEAD. ) ;
#188 = CARTESIAN_POINT ( 'NONE',  ( 4.000000000000000000, 4.898587196589412829E-16, 3.000000000000000000 ) ) ;
#189 = APPLICATION_PROTOCOL_DEFINITION ( 'international standard', 'config_control_design', 1994, #36 ) ;
#190 = CARTESIAN_POINT ( 'NONE',  ( 0.000000000000000000, 0.000000000000000000, 200.0000000000000000 ) ) ;
#191 = COORDINATED_UNIVERSAL_TIME_OFFSET ( 1, 0, .AHEAD. ) ;
#192 = ADVANCED_FACE ( 'NONE', ( #80, #213 ), #38, .T. ) ;
#193 = FACE_OUTER_BOUND ( 'NONE', #24, .T. ) ;
#194 = DIRECTION ( 'NONE',  ( 1.000000000000000000, 0.000000000000000000, -0.000000000000000000 ) ) ;
#195 = LOCAL_TIME ( 12, 53, 13.00000000000000000, #167 ) ;
#196 = DIRECTION ( 'NONE',  ( 0.000000000000000000, 0.000000000000000000, 1.000000000000000000 ) ) ;
#197 = CYLINDRICAL_SURFACE ( 'NONE', #94, 2.250000000000000000 ) ;
#198 = ADVANCED_FACE ( 'NONE', ( #17 ), #19, .F. ) ;
#199 = ORIENTED_EDGE ( 'NONE', *, *, #18, .T. ) ;
#200 = APPROVAL_PERSON_ORGANIZATION ( #164, #65, #149 ) ;
#201 = ORIENTED_EDGE ( 'NONE', *, *, #98, .F. ) ;
#202 = DIRECTION ( 'NONE',  ( 0.000000000000000000, 0.000000000000000000, 1.000000000000000000 ) ) ;
#203 = AXIS2_PLACEMENT_3D ( 'NONE', #121, #30, #104 ) ;
#204 = LINE ( 'NONE', #31, #206 ) ;
#205 = DIRECTION ( 'NONE',  ( 1.000000000000000000, 0.000000000000000000, 0.000000000000000000 ) ) ;
#206 = VECTOR ( 'NONE', #175, 1000.000000000000000 ) ;
#207 = FACE_OUTER_BOUND ( 'NONE', #176, .T. ) ;
#208 = CARTESIAN_POINT ( 'NONE',  ( -2.250000000000000000, 0.000000000000000000, 200.0000000000000000 ) ) ;
#209 = EDGE_CURVE ( 'NONE', #140, #103, #116, .T. ) ;
#210 = CALENDAR_DATE ( 2023, 12, 2 ) ;
#211 = CARTESIAN_POINT ( 'NONE',  ( 0.000000000000000000, 0.000000000000000000, 3.000000000000000000 ) ) ;
#212 = PERSON_AND_ORGANIZATION ( #171, #229 ) ;
#213 = FACE_OUTER_BOUND ( 'NONE', #183, .T. ) ;
#214 = UNCERTAINTY_MEASURE_WITH_UNIT (LENGTH_MEASURE( 1.000000000000000082E-05 ), #157, 'distance_accuracy_value', 'NONE');
#215 = DIRECTION ( 'NONE',  ( -0.000000000000000000, -0.000000000000000000, -1.000000000000000000 ) ) ;
#216 = DIRECTION ( 'NONE',  ( 0.000000000000000000, 0.000000000000000000, 1.000000000000000000 ) ) ;
#217 = CARTESIAN_POINT ( 'NONE',  ( -2.250000000000000000, 0.000000000000000000, 3.000000000000000000 ) ) ;
#218 = EDGE_CURVE ( 'NONE', #49, #1, #246, .T. ) ;
#219 = CARTESIAN_POINT ( 'NONE',  ( 0.000000000000000000, 0.000000000000000000, 3.000000000000000000 ) ) ;
#220 = EDGE_LOOP ( 'NONE', ( #34, #84, #223, #240 ) ) ;
#221 = ORIENTED_EDGE ( 'NONE', *, *, #40, .T. ) ;
#222 = ORIENTED_EDGE ( 'NONE', *, *, #122, .F. ) ;
#223 = ORIENTED_EDGE ( 'NONE', *, *, #243, .T. ) ;
#224 = AXIS2_PLACEMENT_3D ( 'NONE', #169, #202, #82 ) ;
#225 = CC_DESIGN_DATE_AND_TIME_ASSIGNMENT ( #143, #127, ( #120 ) ) ;
#226 = PERSON_AND_ORGANIZATION_ROLE ( 'design_owner' ) ;
#227 = CARTESIAN_POINT ( 'NONE',  ( 2.250000000000000000, 2.755455298081544285E-16, 3.000000000000000000 ) ) ;
#228 = AXIS2_PLACEMENT_3D ( 'NONE', #112, #39, #194 ) ;
#229 = ORGANIZATION ( 'NEURÈENÝ', 'NEURÈENÝ', '' ) ;
#230 = PERSON_AND_ORGANIZATION ( #171, #229 ) ;
#231 = DIRECTION ( 'NONE',  ( 0.000000000000000000, 0.000000000000000000, 1.000000000000000000 ) ) ;
#232 = AXIS2_PLACEMENT_3D ( 'NONE', #182, #50, #123 ) ;
#233 = CYLINDRICAL_SURFACE ( 'NONE', #236, 4.000000000000000000 ) ;
#234 = CARTESIAN_POINT ( 'NONE',  ( 0.000000000000000000, 0.000000000000000000, 200.0000000000000000 ) ) ;
#235 = CC_DESIGN_APPROVAL ( #63, ( #6 ) ) ;
#236 = AXIS2_PLACEMENT_3D ( 'NONE', #211, #12, #91 ) ;
#237 = VECTOR ( 'NONE', #253, 1000.000000000000000 ) ;
#238 = APPROVAL_PERSON_ORGANIZATION ( #212, #133, #131 ) ;
#239 = PRODUCT_DEFINITION ( 'NEZNÁMÝ', '', #6, #113 ) ;
#240 = ORIENTED_EDGE ( 'NONE', *, *, #209, .T. ) ;
#241 = CC_DESIGN_APPROVAL ( #65, ( #239 ) ) ;
#242 = PLANE ( 'NONE',  #203 ) ;
#243 = EDGE_CURVE ( 'NONE', #49, #140, #204, .T. ) ;
#244 = PERSON_AND_ORGANIZATION ( #171, #229 ) ;
#245 = PERSON_AND_ORGANIZATION ( #171, #229 ) ;
#246 = CIRCLE ( 'NONE', #172, 4.000000000000000000 ) ;
#247 = CALENDAR_DATE ( 2023, 12, 2 ) ;
#248 = CC_DESIGN_PERSON_AND_ORGANIZATION_ASSIGNMENT ( #230, #226, ( #10 ) ) ;
#249 = ORIENTED_EDGE ( 'NONE', *, *, #209, .F. ) ;
#250 = DIRECTION ( 'NONE',  ( 0.000000000000000000, 0.000000000000000000, 1.000000000000000000 ) ) ;
#251 = CARTESIAN_POINT ( 'NONE',  ( -2.250000000000000000, 0.000000000000000000, 200.0000000000000000 ) ) ;
#252 = CARTESIAN_POINT ( 'NONE',  ( 0.000000000000000000, 0.000000000000000000, 200.0000000000000000 ) ) ;
#253 = DIRECTION ( 'NONE',  ( -0.000000000000000000, -0.000000000000000000, -1.000000000000000000 ) ) ;
#254 = DIRECTION ( 'NONE',  ( -0.000000000000000000, -0.000000000000000000, -1.000000000000000000 ) ) ;
#255 = CARTESIAN_POINT ( 'NONE',  ( 0.000000000000000000, 0.000000000000000000, 0.000000000000000000 ) ) ;
ENDSEC;
END-ISO-10303-21;
