ISO-10303-21;
HEADER;
FILE_DESCRIPTION (( 'STEP AP203' ),
    '1' );
FILE_NAME ('ca78.STEP',
    '2023-02-12T11:12:07',
    ( '' ),
    ( '' ),
    'SwSTEP 2.0',
    'SolidWorks 2019',
    '' );
FILE_SCHEMA (( 'CONFIG_CONTROL_DESIGN' ));
ENDSEC;

DATA;
#1 = ORIENTED_EDGE ( 'NONE', *, *, #30, .T. ) ;
#2 = APPROVAL ( #212, 'NEURÈENÝ' ) ;
#3 = CYLINDRICAL_SURFACE ( 'NONE', #10, 4.099999999999999645 ) ;
#4 = DIRECTION ( 'NONE',  ( -0.000000000000000000, -0.000000000000000000, -1.000000000000000000 ) ) ;
#5 = APPROVAL_PERSON_ORGANIZATION ( #51, #2, #34 ) ;
#6 = CARTESIAN_POINT ( 'NONE',  ( 0.000000000000000000, 0.000000000000000000, 250.0000000000000000 ) ) ;
#7 = DIRECTION ( 'NONE',  ( 1.000000000000000000, 0.000000000000000000, 0.000000000000000000 ) ) ;
#8 = PLANE ( 'NONE',  #140 ) ;
#9 = DIRECTION ( 'NONE',  ( 1.000000000000000000, 0.000000000000000000, 0.000000000000000000 ) ) ;
#10 = AXIS2_PLACEMENT_3D ( 'NONE', #122, #4, #233 ) ;
#11 =( NAMED_UNIT ( * ) PLANE_ANGLE_UNIT ( ) SI_UNIT ( $, .RADIAN. ) );
#12 = EDGE_CURVE ( 'NONE', #172, #173, #189, .T. ) ;
#13 = APPROVAL_DATE_TIME ( #185, #211 ) ;
#14 = APPROVAL_STATUS ( 'not_yet_approved' ) ;
#15 = CIRCLE ( 'NONE', #43, 7.000000000000000000 ) ;
#16 = ADVANCED_BREP_SHAPE_REPRESENTATION ( 'ca78', ( #64, #144 ), #245 ) ;
#17 = DIRECTION ( 'NONE',  ( -0.000000000000000000, -0.000000000000000000, -1.000000000000000000 ) ) ;
#18 = EDGE_CURVE ( 'NONE', #80, #19, #99, .T. ) ;
#19 = VERTEX_POINT ( 'NONE', #155 ) ;
#20 = ORIENTED_EDGE ( 'NONE', *, *, #148, .T. ) ;
#21 = ORIENTED_EDGE ( 'NONE', *, *, #129, .T. ) ;
#22 = ORIENTED_EDGE ( 'NONE', *, *, #31, .F. ) ;
#23 = AXIS2_PLACEMENT_3D ( 'NONE', #126, #203, #27 ) ;
#24 = DIRECTION ( 'NONE',  ( -1.000000000000000000, 0.000000000000000000, 0.000000000000000000 ) ) ;
#25 = CIRCLE ( 'NONE', #59, 7.000000000000000000 ) ;
#26 = UNCERTAINTY_MEASURE_WITH_UNIT (LENGTH_MEASURE( 1.000000000000000082E-05 ), #123, 'distance_accuracy_value', 'NONE');
#27 = DIRECTION ( 'NONE',  ( 1.000000000000000000, 0.000000000000000000, -0.000000000000000000 ) ) ;
#28 = APPLICATION_CONTEXT ( 'configuration controlled 3d designs of mechanical parts and assemblies' ) ;
#29 = CARTESIAN_POINT ( 'NONE',  ( 7.000000000000000000, 8.572527594031473190E-16, 5.000000000000000000 ) ) ;
#30 = EDGE_CURVE ( 'NONE', #60, #173, #236, .T. ) ;
#31 = EDGE_CURVE ( 'NONE', #235, #19, #71, .T. ) ;
#32 = DIRECTION ( 'NONE',  ( 0.000000000000000000, 0.000000000000000000, 1.000000000000000000 ) ) ;
#33 = DATE_AND_TIME ( #227, #97 ) ;
#34 = APPROVAL_ROLE ( '' ) ;
#35 = DATE_TIME_ROLE ( 'classification_date' ) ;
#36 = EDGE_CURVE ( 'NONE', #173, #172, #237, .T. ) ;
#37 = LINE ( 'NONE', #193, #146 ) ;
#38 = EDGE_LOOP ( 'NONE', ( #82, #22 ) ) ;
#39 = EDGE_LOOP ( 'NONE', ( #194, #139, #176, #98 ) ) ;
#40 = DIRECTION ( 'NONE',  ( 0.000000000000000000, 0.000000000000000000, 1.000000000000000000 ) ) ;
#41 = DIRECTION ( 'NONE',  ( -0.000000000000000000, -0.000000000000000000, -1.000000000000000000 ) ) ;
#42 = CARTESIAN_POINT ( 'NONE',  ( 0.000000000000000000, 0.000000000000000000, 0.000000000000000000 ) ) ;
#43 = AXIS2_PLACEMENT_3D ( 'NONE', #222, #125, #178 ) ;
#44 = CARTESIAN_POINT ( 'NONE',  ( 0.000000000000000000, 0.000000000000000000, 250.0000000000000000 ) ) ;
#45 = PLANE ( 'NONE',  #23 ) ;
#46 = PRODUCT ( 'ca78', 'ca78', '', ( #96 ) ) ;
#47 = DIRECTION ( 'NONE',  ( -0.000000000000000000, -0.000000000000000000, -1.000000000000000000 ) ) ;
#48 = ADVANCED_FACE ( 'NONE', ( #120 ), #3, .T. ) ;
#49 = FACE_BOUND ( 'NONE', #103, .T. ) ;
#50 = LOCAL_TIME ( 12, 12, 7.000000000000000000, #229 ) ;
#51 = PERSON_AND_ORGANIZATION ( #61, #133 ) ;
#52 = DIRECTION ( 'NONE',  ( 1.000000000000000000, 0.000000000000000000, 0.000000000000000000 ) ) ;
#53 = CIRCLE ( 'NONE', #72, 4.099999999999999645 ) ;
#54 = DATE_AND_TIME ( #113, #124 ) ;
#55 = CALENDAR_DATE ( 2023, 12, 2 ) ;
#56 = EDGE_CURVE ( 'NONE', #136, #172, #37, .T. ) ;
#57 = ORIENTED_EDGE ( 'NONE', *, *, #56, .T. ) ;
#58 = ORIENTED_EDGE ( 'NONE', *, *, #148, .F. ) ;
#59 = AXIS2_PLACEMENT_3D ( 'NONE', #223, #106, #145 ) ;
#60 = VERTEX_POINT ( 'NONE', #161 ) ;
#61 = PERSON ( 'NEURÈENÝ', 'NEURÈENÝ', 'NEURÈENÝ', ('NEURÈENÝ'), ('NEURÈENÝ'), ('NEURÈENÝ') ) ;
#62 = DIRECTION ( 'NONE',  ( -0.000000000000000000, -0.000000000000000000, -1.000000000000000000 ) ) ;
#63 = DIRECTION ( 'NONE',  ( 0.000000000000000000, 0.000000000000000000, 1.000000000000000000 ) ) ;
#64 = MANIFOLD_SOLID_BREP ( 'Pøidat vysunutím3', #102 ) ;
#65 = CYLINDRICAL_SURFACE ( 'NONE', #206, 7.000000000000000000 ) ;
#66 = PRODUCT_DEFINITION ( 'NEZNÁMÝ', '', #196, #204 ) ;
#67 = DIRECTION ( 'NONE',  ( 1.000000000000000000, 0.000000000000000000, -0.000000000000000000 ) ) ;
#68 = FACE_OUTER_BOUND ( 'NONE', #195, .T. ) ;
#69 = FACE_OUTER_BOUND ( 'NONE', #38, .T. ) ;
#70 = APPLICATION_CONTEXT ( 'configuration controlled 3d designs of mechanical parts and assemblies' ) ;
#71 = CIRCLE ( 'NONE', #107, 7.000000000000000000 ) ;
#72 = AXIS2_PLACEMENT_3D ( 'NONE', #179, #181, #7 ) ;
#73 = AXIS2_PLACEMENT_3D ( 'NONE', #156, #63, #117 ) ;
#74 = ADVANCED_FACE ( 'NONE', ( #87 ), #8, .T. ) ;
#75 = APPROVAL_ROLE ( '' ) ;
#76 = DIRECTION ( 'NONE',  ( 0.000000000000000000, 0.000000000000000000, 1.000000000000000000 ) ) ;
#77 = EDGE_CURVE ( 'NONE', #119, #80, #25, .T. ) ;
#78 = CC_DESIGN_DATE_AND_TIME_ASSIGNMENT ( #213, #209, ( #66 ) ) ;
#79 = AXIS2_PLACEMENT_3D ( 'NONE', #217, #40, #198 ) ;
#80 = VERTEX_POINT ( 'NONE', #200 ) ;
#81 = ORIENTED_EDGE ( 'NONE', *, *, #31, .T. ) ;
#82 = ORIENTED_EDGE ( 'NONE', *, *, #85, .F. ) ;
#83 = ORIENTED_EDGE ( 'NONE', *, *, #77, .T. ) ;
#84 = ORIENTED_EDGE ( 'NONE', *, *, #77, .F. ) ;
#85 = EDGE_CURVE ( 'NONE', #19, #235, #121, .T. ) ;
#86 = FACE_OUTER_BOUND ( 'NONE', #238, .T. ) ;
#87 = FACE_OUTER_BOUND ( 'NONE', #251, .T. ) ;
#88 = CARTESIAN_POINT ( 'NONE',  ( 0.000000000000000000, 0.000000000000000000, 5.000000000000000000 ) ) ;
#89 = DIRECTION ( 'NONE',  ( 1.000000000000000000, 0.000000000000000000, -0.000000000000000000 ) ) ;
#90 = AXIS2_PLACEMENT_3D ( 'NONE', #44, #47, #127 ) ;
#91 = PERSON_AND_ORGANIZATION_ROLE ( 'creator' ) ;
#92 = PERSON_AND_ORGANIZATION ( #61, #133 ) ;
#93 = LOCAL_TIME ( 12, 12, 7.000000000000000000, #170 ) ;
#94 = CC_DESIGN_DATE_AND_TIME_ASSIGNMENT ( #215, #35, ( #201 ) ) ;
#95 = PERSON_AND_ORGANIZATION_ROLE ( 'classification_officer' ) ;
#96 = MECHANICAL_CONTEXT ( 'NONE', #28, 'mechanical' ) ;
#97 = LOCAL_TIME ( 12, 12, 7.000000000000000000, #253 ) ;
#98 = ORIENTED_EDGE ( 'NONE', *, *, #85, .T. ) ;
#99 = LINE ( 'NONE', #255, #232 ) ;
#100 = VECTOR ( 'NONE', #246, 1000.000000000000000 ) ;
#101 = EDGE_LOOP ( 'NONE', ( #58, #57, #219, #174 ) ) ;
#102 = CLOSED_SHELL ( 'NONE', ( #112, #128, #137, #160, #210, #48, #74 ) ) ;
#103 = EDGE_LOOP ( 'NONE', ( #197, #254 ) ) ;
#104 = ORIENTED_EDGE ( 'NONE', *, *, #56, .F. ) ;
#105 = PRODUCT_RELATED_PRODUCT_CATEGORY ( 'detail', '', ( #46 ) ) ;
#106 = DIRECTION ( 'NONE',  ( 0.000000000000000000, 0.000000000000000000, 1.000000000000000000 ) ) ;
#107 = AXIS2_PLACEMENT_3D ( 'NONE', #175, #142, #220 ) ;
#108 = CYLINDRICAL_SURFACE ( 'NONE', #182, 7.000000000000000000 ) ;
#109 = LINE ( 'NONE', #29, #100 ) ;
#110 = CARTESIAN_POINT ( 'NONE',  ( 0.000000000000000000, 0.000000000000000000, 0.000000000000000000 ) ) ;
#111 = CARTESIAN_POINT ( 'NONE',  ( 7.000000000000000000, 8.572527594031473190E-16, 5.000000000000000000 ) ) ;
#112 = ADVANCED_FACE ( 'NONE', ( #158 ), #143, .T. ) ;
#113 = CALENDAR_DATE ( 2023, 12, 2 ) ;
#114 = APPROVAL_STATUS ( 'not_yet_approved' ) ;
#115 = APPROVAL_DATE_TIME ( #54, #138 ) ;
#116 = APPLICATION_PROTOCOL_DEFINITION ( 'international standard', 'config_control_design', 1994, #70 ) ;
#117 = DIRECTION ( 'NONE',  ( 1.000000000000000000, 0.000000000000000000, 0.000000000000000000 ) ) ;
#118 = ORIENTED_EDGE ( 'NONE', *, *, #149, .F. ) ;
#119 = VERTEX_POINT ( 'NONE', #111 ) ;
#120 = FACE_OUTER_BOUND ( 'NONE', #218, .T. ) ;
#121 = CIRCLE ( 'NONE', #135, 7.000000000000000000 ) ;
#122 = CARTESIAN_POINT ( 'NONE',  ( 0.000000000000000000, 0.000000000000000000, 250.0000000000000000 ) ) ;
#123 =( LENGTH_UNIT ( ) NAMED_UNIT ( * ) SI_UNIT ( .MILLI., .METRE. ) );
#124 = LOCAL_TIME ( 12, 12, 7.000000000000000000, #131 ) ;
#125 = DIRECTION ( 'NONE',  ( 0.000000000000000000, 0.000000000000000000, 1.000000000000000000 ) ) ;
#126 = CARTESIAN_POINT ( 'NONE',  ( 0.000000000000000000, 0.000000000000000000, 5.000000000000000000 ) ) ;
#127 = DIRECTION ( 'NONE',  ( -1.000000000000000000, 0.000000000000000000, 0.000000000000000000 ) ) ;
#128 = ADVANCED_FACE ( 'NONE', ( #86 ), #108, .T. ) ;
#129 = EDGE_CURVE ( 'NONE', #80, #119, #15, .T. ) ;
#130 = PERSON_AND_ORGANIZATION_ROLE ( 'creator' ) ;
#131 = COORDINATED_UNIVERSAL_TIME_OFFSET ( 1, 0, .AHEAD. ) ;
#132 = PERSON_AND_ORGANIZATION ( #61, #133 ) ;
#133 = ORGANIZATION ( 'NEURÈENÝ', 'NEURÈENÝ', '' ) ;
#134 = PERSON_AND_ORGANIZATION_ROLE ( 'design_owner' ) ;
#135 = AXIS2_PLACEMENT_3D ( 'NONE', #42, #225, #9 ) ;
#136 = VERTEX_POINT ( 'NONE', #243 ) ;
#137 = ADVANCED_FACE ( 'NONE', ( #163 ), #65, .T. ) ;
#138 = APPROVAL ( #14, 'NEURÈENÝ' ) ;
#139 = ORIENTED_EDGE ( 'NONE', *, *, #129, .F. ) ;
#140 = AXIS2_PLACEMENT_3D ( 'NONE', #6, #32, #67 ) ;
#141 = ORIENTED_EDGE ( 'NONE', *, *, #149, .T. ) ;
#142 = DIRECTION ( 'NONE',  ( 0.000000000000000000, 0.000000000000000000, 1.000000000000000000 ) ) ;
#143 = CYLINDRICAL_SURFACE ( 'NONE', #90, 4.099999999999999645 ) ;
#144 = AXIS2_PLACEMENT_3D ( 'NONE', #187, #76, #52 ) ;
#145 = DIRECTION ( 'NONE',  ( 1.000000000000000000, 0.000000000000000000, 0.000000000000000000 ) ) ;
#146 = VECTOR ( 'NONE', #17, 1000.000000000000000 ) ;
#147 = PLANE ( 'NONE',  #216 ) ;
#148 = EDGE_CURVE ( 'NONE', #136, #60, #168, .T. ) ;
#149 = EDGE_CURVE ( 'NONE', #60, #136, #53, .T. ) ;
#150 = APPROVAL_DATE_TIME ( #33, #2 ) ;
#151 = CC_DESIGN_SECURITY_CLASSIFICATION ( #201, ( #196 ) ) ;
#152 = PERSON_AND_ORGANIZATION_ROLE ( 'design_supplier' ) ;
#153 = CC_DESIGN_PERSON_AND_ORGANIZATION_ASSIGNMENT ( #132, #130, ( #66 ) ) ;
#154 = ORIENTED_EDGE ( 'NONE', *, *, #165, .T. ) ;
#155 = CARTESIAN_POINT ( 'NONE',  ( -7.000000000000000000, 0.000000000000000000, 0.000000000000000000 ) ) ;
#156 = CARTESIAN_POINT ( 'NONE',  ( 0.000000000000000000, 0.000000000000000000, 5.000000000000000000 ) ) ;
#157 = ORIENTED_EDGE ( 'NONE', *, *, #18, .F. ) ;
#158 = FACE_OUTER_BOUND ( 'NONE', #101, .T. ) ;
#159 = DIRECTION ( 'NONE',  ( -0.000000000000000000, -0.000000000000000000, -1.000000000000000000 ) ) ;
#160 = ADVANCED_FACE ( 'NONE', ( #49, #68 ), #45, .T. ) ;
#161 = CARTESIAN_POINT ( 'NONE',  ( -4.099999999999999645, 0.000000000000000000, 250.0000000000000000 ) ) ;
#162 = LOCAL_TIME ( 12, 12, 7.000000000000000000, #171 ) ;
#163 = FACE_OUTER_BOUND ( 'NONE', #39, .T. ) ;
#164 = CARTESIAN_POINT ( 'NONE',  ( 7.000000000000000000, 8.572527594031473190E-16, 0.000000000000000000 ) ) ;
#165 = EDGE_CURVE ( 'NONE', #119, #235, #109, .T. ) ;
#166 = CC_DESIGN_PERSON_AND_ORGANIZATION_ASSIGNMENT ( #248, #134, ( #46 ) ) ;
#167 = SHAPE_DEFINITION_REPRESENTATION ( #180, #16 ) ;
#168 = CIRCLE ( 'NONE', #177, 4.099999999999999645 ) ;
#169 = APPROVAL_ROLE ( '' ) ;
#170 = COORDINATED_UNIVERSAL_TIME_OFFSET ( 1, 0, .AHEAD. ) ;
#171 = COORDINATED_UNIVERSAL_TIME_OFFSET ( 1, 0, .AHEAD. ) ;
#172 = VERTEX_POINT ( 'NONE', #242 ) ;
#173 = VERTEX_POINT ( 'NONE', #207 ) ;
#174 = ORIENTED_EDGE ( 'NONE', *, *, #30, .F. ) ;
#175 = CARTESIAN_POINT ( 'NONE',  ( 0.000000000000000000, 0.000000000000000000, 0.000000000000000000 ) ) ;
#176 = ORIENTED_EDGE ( 'NONE', *, *, #18, .T. ) ;
#177 = AXIS2_PLACEMENT_3D ( 'NONE', #226, #244, #202 ) ;
#178 = DIRECTION ( 'NONE',  ( 1.000000000000000000, 0.000000000000000000, 0.000000000000000000 ) ) ;
#179 = CARTESIAN_POINT ( 'NONE',  ( 0.000000000000000000, 0.000000000000000000, 250.0000000000000000 ) ) ;
#180 = PRODUCT_DEFINITION_SHAPE ( 'NONE', 'NONE',  #66 ) ;
#181 = DIRECTION ( 'NONE',  ( 0.000000000000000000, 0.000000000000000000, 1.000000000000000000 ) ) ;
#182 = AXIS2_PLACEMENT_3D ( 'NONE', #88, #159, #184 ) ;
#183 = DIRECTION ( 'NONE',  ( 0.000000000000000000, 0.000000000000000000, 1.000000000000000000 ) ) ;
#184 = DIRECTION ( 'NONE',  ( -1.000000000000000000, 0.000000000000000000, 0.000000000000000000 ) ) ;
#185 = DATE_AND_TIME ( #190, #50 ) ;
#186 = CC_DESIGN_APPROVAL ( #2, ( #196 ) ) ;
#187 = CARTESIAN_POINT ( 'NONE',  ( 0.000000000000000000, 0.000000000000000000, 0.000000000000000000 ) ) ;
#188 = PERSON_AND_ORGANIZATION ( #61, #133 ) ;
#189 = CIRCLE ( 'NONE', #73, 4.099999999999999645 ) ;
#190 = CALENDAR_DATE ( 2023, 12, 2 ) ;
#191 = PERSON_AND_ORGANIZATION ( #61, #133 ) ;
#192 = CC_DESIGN_APPROVAL ( #138, ( #201 ) ) ;
#193 = CARTESIAN_POINT ( 'NONE',  ( 4.099999999999999645, 5.021051876504147385E-16, 250.0000000000000000 ) ) ;
#194 = ORIENTED_EDGE ( 'NONE', *, *, #165, .F. ) ;
#195 = EDGE_LOOP ( 'NONE', ( #21, #83 ) ) ;
#196 = PRODUCT_DEFINITION_FORMATION_WITH_SPECIFIED_SOURCE ( 'LIBOVOLNÝ', '', #46, .NOT_KNOWN. ) ;
#197 = ORIENTED_EDGE ( 'NONE', *, *, #36, .F. ) ;
#198 = DIRECTION ( 'NONE',  ( 1.000000000000000000, 0.000000000000000000, 0.000000000000000000 ) ) ;
#199 = CC_DESIGN_PERSON_AND_ORGANIZATION_ASSIGNMENT ( #252, #91, ( #196 ) ) ;
#200 = CARTESIAN_POINT ( 'NONE',  ( -7.000000000000000000, 0.000000000000000000, 5.000000000000000000 ) ) ;
#201 = SECURITY_CLASSIFICATION ( '', '', #230 ) ;
#202 = DIRECTION ( 'NONE',  ( 1.000000000000000000, 0.000000000000000000, 0.000000000000000000 ) ) ;
#203 = DIRECTION ( 'NONE',  ( 0.000000000000000000, 0.000000000000000000, 1.000000000000000000 ) ) ;
#204 = DESIGN_CONTEXT ( 'detailed design', #70, 'design' ) ;
#205 = CARTESIAN_POINT ( 'NONE',  ( 0.000000000000000000, 0.000000000000000000, 5.000000000000000000 ) ) ;
#206 = AXIS2_PLACEMENT_3D ( 'NONE', #205, #224, #24 ) ;
#207 = CARTESIAN_POINT ( 'NONE',  ( -4.099999999999999645, 0.000000000000000000, 5.000000000000000000 ) ) ;
#208 = APPLICATION_PROTOCOL_DEFINITION ( 'international standard', 'config_control_design', 1994, #28 ) ;
#209 = DATE_TIME_ROLE ( 'creation_date' ) ;
#210 = ADVANCED_FACE ( 'NONE', ( #69 ), #147, .F. ) ;
#211 = APPROVAL ( #114, 'NEURÈENÝ' ) ;
#212 = APPROVAL_STATUS ( 'not_yet_approved' ) ;
#213 = DATE_AND_TIME ( #228, #162 ) ;
#214 = CC_DESIGN_PERSON_AND_ORGANIZATION_ASSIGNMENT ( #231, #152, ( #196 ) ) ;
#215 = DATE_AND_TIME ( #55, #93 ) ;
#216 = AXIS2_PLACEMENT_3D ( 'NONE', #110, #183, #89 ) ;
#217 = CARTESIAN_POINT ( 'NONE',  ( 0.000000000000000000, 0.000000000000000000, 5.000000000000000000 ) ) ;
#218 = EDGE_LOOP ( 'NONE', ( #104, #118, #1, #239 ) ) ;
#219 = ORIENTED_EDGE ( 'NONE', *, *, #12, .T. ) ;
#220 = DIRECTION ( 'NONE',  ( 1.000000000000000000, 0.000000000000000000, 0.000000000000000000 ) ) ;
#221 = CARTESIAN_POINT ( 'NONE',  ( -4.099999999999999645, 0.000000000000000000, 250.0000000000000000 ) ) ;
#222 = CARTESIAN_POINT ( 'NONE',  ( 0.000000000000000000, 0.000000000000000000, 5.000000000000000000 ) ) ;
#223 = CARTESIAN_POINT ( 'NONE',  ( 0.000000000000000000, 0.000000000000000000, 5.000000000000000000 ) ) ;
#224 = DIRECTION ( 'NONE',  ( -0.000000000000000000, -0.000000000000000000, -1.000000000000000000 ) ) ;
#225 = DIRECTION ( 'NONE',  ( 0.000000000000000000, 0.000000000000000000, 1.000000000000000000 ) ) ;
#226 = CARTESIAN_POINT ( 'NONE',  ( 0.000000000000000000, 0.000000000000000000, 250.0000000000000000 ) ) ;
#227 = CALENDAR_DATE ( 2023, 12, 2 ) ;
#228 = CALENDAR_DATE ( 2023, 12, 2 ) ;
#229 = COORDINATED_UNIVERSAL_TIME_OFFSET ( 1, 0, .AHEAD. ) ;
#230 = SECURITY_CLASSIFICATION_LEVEL ( 'unclassified' ) ;
#231 = PERSON_AND_ORGANIZATION ( #61, #133 ) ;
#232 = VECTOR ( 'NONE', #62, 1000.000000000000000 ) ;
#233 = DIRECTION ( 'NONE',  ( -1.000000000000000000, 0.000000000000000000, 0.000000000000000000 ) ) ;
#234 = APPROVAL_PERSON_ORGANIZATION ( #92, #138, #75 ) ;
#235 = VERTEX_POINT ( 'NONE', #164 ) ;
#236 = LINE ( 'NONE', #221, #247 ) ;
#237 = CIRCLE ( 'NONE', #79, 4.099999999999999645 ) ;
#238 = EDGE_LOOP ( 'NONE', ( #84, #154, #81, #157 ) ) ;
#239 = ORIENTED_EDGE ( 'NONE', *, *, #36, .T. ) ;
#240 = CC_DESIGN_APPROVAL ( #211, ( #66 ) ) ;
#241 = CC_DESIGN_PERSON_AND_ORGANIZATION_ASSIGNMENT ( #188, #95, ( #201 ) ) ;
#242 = CARTESIAN_POINT ( 'NONE',  ( 4.099999999999999645, 5.021051876504147385E-16, 5.000000000000000000 ) ) ;
#243 = CARTESIAN_POINT ( 'NONE',  ( 4.099999999999999645, 5.021051876504147385E-16, 250.0000000000000000 ) ) ;
#244 = DIRECTION ( 'NONE',  ( 0.000000000000000000, 0.000000000000000000, 1.000000000000000000 ) ) ;
#245 =( GEOMETRIC_REPRESENTATION_CONTEXT ( 3 ) GLOBAL_UNCERTAINTY_ASSIGNED_CONTEXT ( ( #26 ) ) GLOBAL_UNIT_ASSIGNED_CONTEXT ( ( #123, #11, #250 ) ) REPRESENTATION_CONTEXT ( 'NONE', 'WORKASPACE' ) );
#246 = DIRECTION ( 'NONE',  ( -0.000000000000000000, -0.000000000000000000, -1.000000000000000000 ) ) ;
#247 = VECTOR ( 'NONE', #41, 1000.000000000000000 ) ;
#248 = PERSON_AND_ORGANIZATION ( #61, #133 ) ;
#249 = APPROVAL_PERSON_ORGANIZATION ( #191, #211, #169 ) ;
#250 =( NAMED_UNIT ( * ) SI_UNIT ( $, .STERADIAN. ) SOLID_ANGLE_UNIT ( ) );
#251 = EDGE_LOOP ( 'NONE', ( #141, #20 ) ) ;
#252 = PERSON_AND_ORGANIZATION ( #61, #133 ) ;
#253 = COORDINATED_UNIVERSAL_TIME_OFFSET ( 1, 0, .AHEAD. ) ;
#254 = ORIENTED_EDGE ( 'NONE', *, *, #12, .F. ) ;
#255 = CARTESIAN_POINT ( 'NONE',  ( -7.000000000000000000, 0.000000000000000000, 5.000000000000000000 ) ) ;
ENDSEC;
END-ISO-10303-21;
