ISO-10303-21;
HEADER;
FILE_DESCRIPTION (( 'STEP AP203' ),
    '1' );
FILE_NAME ('e30b.STEP',
    '2023-02-12T11:42:47',
    ( '' ),
    ( '' ),
    'SwSTEP 2.0',
    'SolidWorks 2019',
    '' );
FILE_SCHEMA (( 'CONFIG_CONTROL_DESIGN' ));
ENDSEC;

DATA;
#1 = AXIS2_PLACEMENT_3D ( 'NONE', #81, #29, #106 ) ;
#2 = AXIS2_PLACEMENT_3D ( 'NONE', #158, #116, #199 ) ;
#3 = CC_DESIGN_DATE_AND_TIME_ASSIGNMENT ( #50, #107, ( #182 ) ) ;
#4 = VERTEX_POINT ( 'NONE', #186 ) ;
#5 = CIRCLE ( 'NONE', #150, 2.750000000000000000 ) ;
#6 = EDGE_LOOP ( 'NONE', ( #218, #222, #169, #65 ) ) ;
#7 = DATE_AND_TIME ( #86, #235 ) ;
#8 = CIRCLE ( 'NONE', #78, 2.750000000000000000 ) ;
#9 = FACE_OUTER_BOUND ( 'NONE', #82, .T. ) ;
#10 = APPLICATION_CONTEXT ( 'configuration controlled 3d designs of mechanical parts and assemblies' ) ;
#11 = AXIS2_PLACEMENT_3D ( 'NONE', #130, #188, #48 ) ;
#12 = APPROVAL_STATUS ( 'not_yet_approved' ) ;
#13 = ORIENTED_EDGE ( 'NONE', *, *, #239, .T. ) ;
#14 = EDGE_CURVE ( 'NONE', #26, #104, #118, .T. ) ;
#15 = DATE_AND_TIME ( #194, #92 ) ;
#16 = DIRECTION ( 'NONE',  ( 0.000000000000000000, 0.000000000000000000, 1.000000000000000000 ) ) ;
#17 = FACE_OUTER_BOUND ( 'NONE', #190, .T. ) ;
#18 = AXIS2_PLACEMENT_3D ( 'NONE', #35, #40, #229 ) ;
#19 = PERSON_AND_ORGANIZATION_ROLE ( 'creator' ) ;
#20 = LOCAL_TIME ( 12, 42, 47.00000000000000000, #143 ) ;
#21 = LINE ( 'NONE', #215, #72 ) ;
#22 = LINE ( 'NONE', #95, #23 ) ;
#23 = VECTOR ( 'NONE', #255, 1000.000000000000000 ) ;
#24 = ADVANCED_FACE ( 'NONE', ( #9 ), #87, .T. ) ;
#25 = CC_DESIGN_APPROVAL ( #44, ( #243 ) ) ;
#26 = VERTEX_POINT ( 'NONE', #108 ) ;
#27 = AXIS2_PLACEMENT_3D ( 'NONE', #70, #64, #220 ) ;
#28 = CARTESIAN_POINT ( 'NONE',  ( 0.000000000000000000, 0.000000000000000000, 3.000000000000000000 ) ) ;
#29 = DIRECTION ( 'NONE',  ( 0.000000000000000000, 0.000000000000000000, 1.000000000000000000 ) ) ;
#30 = DIRECTION ( 'NONE',  ( -1.000000000000000000, 0.000000000000000000, 0.000000000000000000 ) ) ;
#31 = EDGE_CURVE ( 'NONE', #53, #49, #193, .T. ) ;
#32 = APPROVAL ( #205, 'NEURÈENÝ' ) ;
#33 = APPROVAL_ROLE ( '' ) ;
#34 = CARTESIAN_POINT ( 'NONE',  ( 0.000000000000000000, 0.000000000000000000, 100.0000000000000000 ) ) ;
#35 = CARTESIAN_POINT ( 'NONE',  ( 0.000000000000000000, 0.000000000000000000, 0.000000000000000000 ) ) ;
#36 = CC_DESIGN_PERSON_AND_ORGANIZATION_ASSIGNMENT ( #172, #244, ( #182 ) ) ;
#37 = PLANE ( 'NONE',  #216 ) ;
#38 = AXIS2_PLACEMENT_3D ( 'NONE', #173, #246, #30 ) ;
#39 = CIRCLE ( 'NONE', #27, 5.000000000000000000 ) ;
#40 = DIRECTION ( 'NONE',  ( 0.000000000000000000, 0.000000000000000000, 1.000000000000000000 ) ) ;
#41 = APPROVAL_ROLE ( '' ) ;
#42 = DIRECTION ( 'NONE',  ( -0.000000000000000000, -0.000000000000000000, -1.000000000000000000 ) ) ;
#43 = AXIS2_PLACEMENT_3D ( 'NONE', #74, #56, #210 ) ;
#44 = APPROVAL ( #141, 'NEURÈENÝ' ) ;
#45 = CIRCLE ( 'NONE', #18, 5.000000000000000000 ) ;
#46 = ORIENTED_EDGE ( 'NONE', *, *, #200, .F. ) ;
#47 = ORIENTED_EDGE ( 'NONE', *, *, #61, .T. ) ;
#48 = DIRECTION ( 'NONE',  ( 1.000000000000000000, 0.000000000000000000, 0.000000000000000000 ) ) ;
#49 = VERTEX_POINT ( 'NONE', #117 ) ;
#50 = DATE_AND_TIME ( #206, #99 ) ;
#51 = ADVANCED_FACE ( 'NONE', ( #231 ), #113, .T. ) ;
#52 = EDGE_LOOP ( 'NONE', ( #203, #242 ) ) ;
#53 = VERTEX_POINT ( 'NONE', #195 ) ;
#54 = DIRECTION ( 'NONE',  ( 1.000000000000000000, 0.000000000000000000, 0.000000000000000000 ) ) ;
#55 = DIRECTION ( 'NONE',  ( 1.000000000000000000, 0.000000000000000000, -0.000000000000000000 ) ) ;
#56 = DIRECTION ( 'NONE',  ( 0.000000000000000000, 0.000000000000000000, 1.000000000000000000 ) ) ;
#57 = AXIS2_PLACEMENT_3D ( 'NONE', #34, #110, #177 ) ;
#58 = DIRECTION ( 'NONE',  ( 1.000000000000000000, 0.000000000000000000, 0.000000000000000000 ) ) ;
#59 = CALENDAR_DATE ( 2023, 12, 2 ) ;
#60 = PRODUCT_DEFINITION_FORMATION_WITH_SPECIFIED_SOURCE ( 'LIBOVOLNÝ', '', #245, .NOT_KNOWN. ) ;
#61 = EDGE_CURVE ( 'NONE', #49, #171, #45, .T. ) ;
#62 = EDGE_CURVE ( 'NONE', #53, #127, #201, .T. ) ;
#63 = ORIENTED_EDGE ( 'NONE', *, *, #239, .F. ) ;
#64 = DIRECTION ( 'NONE',  ( 0.000000000000000000, 0.000000000000000000, 1.000000000000000000 ) ) ;
#65 = ORIENTED_EDGE ( 'NONE', *, *, #31, .F. ) ;
#66 = APPLICATION_PROTOCOL_DEFINITION ( 'international standard', 'config_control_design', 1994, #159 ) ;
#67 = ORIENTED_EDGE ( 'NONE', *, *, #62, .F. ) ;
#68 = EDGE_CURVE ( 'NONE', #4, #224, #8, .T. ) ;
#69 = CARTESIAN_POINT ( 'NONE',  ( 2.750000000000000000, 3.367778697655220519E-16, 100.0000000000000000 ) ) ;
#70 = CARTESIAN_POINT ( 'NONE',  ( 0.000000000000000000, 0.000000000000000000, 3.000000000000000000 ) ) ;
#71 = APPROVAL_DATE_TIME ( #15, #133 ) ;
#72 = VECTOR ( 'NONE', #42, 1000.000000000000000 ) ;
#73 = CYLINDRICAL_SURFACE ( 'NONE', #2, 5.000000000000000000 ) ;
#74 = CARTESIAN_POINT ( 'NONE',  ( 0.000000000000000000, 0.000000000000000000, 0.000000000000000000 ) ) ;
#75 = PERSON_AND_ORGANIZATION ( #136, #100 ) ;
#76 = CARTESIAN_POINT ( 'NONE',  ( 0.000000000000000000, 0.000000000000000000, 100.0000000000000000 ) ) ;
#77 = FACE_OUTER_BOUND ( 'NONE', #84, .T. ) ;
#78 = AXIS2_PLACEMENT_3D ( 'NONE', #180, #90, #54 ) ;
#79 = ADVANCED_FACE ( 'NONE', ( #176, #225 ), #179, .T. ) ;
#80 = APPROVAL_DATE_TIME ( #146, #44 ) ;
#81 = CARTESIAN_POINT ( 'NONE',  ( 0.000000000000000000, 0.000000000000000000, 3.000000000000000000 ) ) ;
#82 = EDGE_LOOP ( 'NONE', ( #63, #189, #152, #101 ) ) ;
#83 = PERSON_AND_ORGANIZATION_ROLE ( 'design_owner' ) ;
#84 = EDGE_LOOP ( 'NONE', ( #46, #67, #149, #47 ) ) ;
#85 = ADVANCED_FACE ( 'NONE', ( #17 ), #142, .F. ) ;
#86 = CALENDAR_DATE ( 2023, 12, 2 ) ;
#87 = CYLINDRICAL_SURFACE ( 'NONE', #38, 2.750000000000000000 ) ;
#88 = CARTESIAN_POINT ( 'NONE',  ( -5.000000000000000000, 0.000000000000000000, 3.000000000000000000 ) ) ;
#89 =( NAMED_UNIT ( * ) SI_UNIT ( $, .STERADIAN. ) SOLID_ANGLE_UNIT ( ) );
#90 = DIRECTION ( 'NONE',  ( 0.000000000000000000, 0.000000000000000000, 1.000000000000000000 ) ) ;
#91 = DIRECTION ( 'NONE',  ( 1.000000000000000000, 0.000000000000000000, -0.000000000000000000 ) ) ;
#92 = LOCAL_TIME ( 12, 42, 47.00000000000000000, #109 ) ;
#93 = SECURITY_CLASSIFICATION_LEVEL ( 'unclassified' ) ;
#94 = CARTESIAN_POINT ( 'NONE',  ( 5.000000000000000000, 6.123233995736766282E-16, 0.000000000000000000 ) ) ;
#95 = CARTESIAN_POINT ( 'NONE',  ( 5.000000000000000000, 6.123233995736766282E-16, 3.000000000000000000 ) ) ;
#96 = CC_DESIGN_PERSON_AND_ORGANIZATION_ASSIGNMENT ( #254, #233, ( #60 ) ) ;
#97 = AXIS2_PLACEMENT_3D ( 'NONE', #249, #112, #91 ) ;
#98 = CALENDAR_DATE ( 2023, 12, 2 ) ;
#99 = LOCAL_TIME ( 12, 42, 47.00000000000000000, #221 ) ;
#100 = ORGANIZATION ( 'NEURÈENÝ', 'NEURÈENÝ', '' ) ;
#101 = ORIENTED_EDGE ( 'NONE', *, *, #183, .F. ) ;
#102 = ORIENTED_EDGE ( 'NONE', *, *, #14, .T. ) ;
#103 = EDGE_CURVE ( 'NONE', #171, #49, #185, .T. ) ;
#104 = VERTEX_POINT ( 'NONE', #252 ) ;
#105 = APPROVAL_ROLE ( '' ) ;
#106 = DIRECTION ( 'NONE',  ( 1.000000000000000000, 0.000000000000000000, 0.000000000000000000 ) ) ;
#107 = DATE_TIME_ROLE ( 'creation_date' ) ;
#108 = CARTESIAN_POINT ( 'NONE',  ( -2.750000000000000000, 0.000000000000000000, 3.000000000000000000 ) ) ;
#109 = COORDINATED_UNIVERSAL_TIME_OFFSET ( 1, 0, .AHEAD. ) ;
#110 = DIRECTION ( 'NONE',  ( -0.000000000000000000, -0.000000000000000000, -1.000000000000000000 ) ) ;
#111 = DIRECTION ( 'NONE',  ( 1.000000000000000000, 0.000000000000000000, 0.000000000000000000 ) ) ;
#112 = DIRECTION ( 'NONE',  ( 0.000000000000000000, 0.000000000000000000, 1.000000000000000000 ) ) ;
#113 = CYLINDRICAL_SURFACE ( 'NONE', #57, 2.750000000000000000 ) ;
#114 = PERSON_AND_ORGANIZATION_ROLE ( 'classification_officer' ) ;
#115 = ADVANCED_BREP_SHAPE_REPRESENTATION ( 'e30b', ( #198, #184 ), #232 ) ;
#116 = DIRECTION ( 'NONE',  ( -0.000000000000000000, -0.000000000000000000, -1.000000000000000000 ) ) ;
#117 = CARTESIAN_POINT ( 'NONE',  ( -5.000000000000000000, 0.000000000000000000, 0.000000000000000000 ) ) ;
#118 = CIRCLE ( 'NONE', #1, 2.750000000000000000 ) ;
#119 = UNCERTAINTY_MEASURE_WITH_UNIT (LENGTH_MEASURE( 1.000000000000000082E-05 ), #241, 'distance_accuracy_value', 'NONE');
#120 = CLOSED_SHELL ( 'NONE', ( #24, #191, #202, #79, #85, #51, #138 ) ) ;
#121 = AXIS2_PLACEMENT_3D ( 'NONE', #251, #16, #58 ) ;
#122 = CIRCLE ( 'NONE', #11, 2.750000000000000000 ) ;
#123 = EDGE_CURVE ( 'NONE', #224, #104, #21, .T. ) ;
#124 = ORIENTED_EDGE ( 'NONE', *, *, #123, .F. ) ;
#125 =( NAMED_UNIT ( * ) PLANE_ANGLE_UNIT ( ) SI_UNIT ( $, .RADIAN. ) );
#126 = CC_DESIGN_APPROVAL ( #133, ( #60 ) ) ;
#127 = VERTEX_POINT ( 'NONE', #160 ) ;
#128 = PERSON_AND_ORGANIZATION ( #136, #100 ) ;
#129 = ORIENTED_EDGE ( 'NONE', *, *, #61, .F. ) ;
#130 = CARTESIAN_POINT ( 'NONE',  ( 0.000000000000000000, 0.000000000000000000, 3.000000000000000000 ) ) ;
#131 = DIRECTION ( 'NONE',  ( 0.000000000000000000, 0.000000000000000000, 1.000000000000000000 ) ) ;
#132 = ORIENTED_EDGE ( 'NONE', *, *, #183, .T. ) ;
#133 = APPROVAL ( #12, 'NEURÈENÝ' ) ;
#134 = DIRECTION ( 'NONE',  ( -0.000000000000000000, -0.000000000000000000, -1.000000000000000000 ) ) ;
#135 = CARTESIAN_POINT ( 'NONE',  ( 0.000000000000000000, 0.000000000000000000, 3.000000000000000000 ) ) ;
#136 = PERSON ( 'NEURÈENÝ', 'NEURÈENÝ', 'NEURÈENÝ', ('NEURÈENÝ'), ('NEURÈENÝ'), ('NEURÈENÝ') ) ;
#137 = CARTESIAN_POINT ( 'NONE',  ( -2.750000000000000000, 0.000000000000000000, 100.0000000000000000 ) ) ;
#138 = ADVANCED_FACE ( 'NONE', ( #227 ), #37, .T. ) ;
#139 = DIRECTION ( 'NONE',  ( 0.000000000000000000, 0.000000000000000000, 1.000000000000000000 ) ) ;
#140 = LOCAL_TIME ( 12, 42, 47.00000000000000000, #164 ) ;
#141 = APPROVAL_STATUS ( 'not_yet_approved' ) ;
#142 = PLANE ( 'NONE',  #97 ) ;
#143 = COORDINATED_UNIVERSAL_TIME_OFFSET ( 1, 0, .AHEAD. ) ;
#144 = CC_DESIGN_APPROVAL ( #32, ( #182 ) ) ;
#145 = CC_DESIGN_PERSON_AND_ORGANIZATION_ASSIGNMENT ( #226, #19, ( #60 ) ) ;
#146 = DATE_AND_TIME ( #98, #20 ) ;
#147 = AXIS2_PLACEMENT_3D ( 'NONE', #28, #134, #204 ) ;
#148 = ORIENTED_EDGE ( 'NONE', *, *, #68, .T. ) ;
#149 = ORIENTED_EDGE ( 'NONE', *, *, #31, .T. ) ;
#150 = AXIS2_PLACEMENT_3D ( 'NONE', #157, #153, #111 ) ;
#151 = APPROVAL_DATE_TIME ( #7, #32 ) ;
#152 = ORIENTED_EDGE ( 'NONE', *, *, #214, .T. ) ;
#153 = DIRECTION ( 'NONE',  ( 0.000000000000000000, 0.000000000000000000, 1.000000000000000000 ) ) ;
#154 = CC_DESIGN_PERSON_AND_ORGANIZATION_ASSIGNMENT ( #175, #83, ( #245 ) ) ;
#155 = ORIENTED_EDGE ( 'NONE', *, *, #103, .F. ) ;
#156 = AXIS2_PLACEMENT_3D ( 'NONE', #135, #209, #196 ) ;
#157 = CARTESIAN_POINT ( 'NONE',  ( 0.000000000000000000, 0.000000000000000000, 100.0000000000000000 ) ) ;
#158 = CARTESIAN_POINT ( 'NONE',  ( 0.000000000000000000, 0.000000000000000000, 3.000000000000000000 ) ) ;
#159 = APPLICATION_CONTEXT ( 'configuration controlled 3d designs of mechanical parts and assemblies' ) ;
#160 = CARTESIAN_POINT ( 'NONE',  ( 5.000000000000000000, 6.123233995736766282E-16, 3.000000000000000000 ) ) ;
#161 = DATE_TIME_ROLE ( 'classification_date' ) ;
#162 = LINE ( 'NONE', #137, #181 ) ;
#163 = CYLINDRICAL_SURFACE ( 'NONE', #147, 5.000000000000000000 ) ;
#164 = COORDINATED_UNIVERSAL_TIME_OFFSET ( 1, 0, .AHEAD. ) ;
#165 = CC_DESIGN_PERSON_AND_ORGANIZATION_ASSIGNMENT ( #75, #114, ( #243 ) ) ;
#166 = SHAPE_DEFINITION_REPRESENTATION ( #240, #115 ) ;
#167 = EDGE_LOOP ( 'NONE', ( #148, #13 ) ) ;
#168 = DIRECTION ( 'NONE',  ( 1.000000000000000000, 0.000000000000000000, 0.000000000000000000 ) ) ;
#169 = ORIENTED_EDGE ( 'NONE', *, *, #103, .T. ) ;
#170 = APPLICATION_PROTOCOL_DEFINITION ( 'international standard', 'config_control_design', 1994, #10 ) ;
#171 = VERTEX_POINT ( 'NONE', #94 ) ;
#172 = PERSON_AND_ORGANIZATION ( #136, #100 ) ;
#173 = CARTESIAN_POINT ( 'NONE',  ( 0.000000000000000000, 0.000000000000000000, 100.0000000000000000 ) ) ;
#174 = DIRECTION ( 'NONE',  ( -0.000000000000000000, -0.000000000000000000, -1.000000000000000000 ) ) ;
#175 = PERSON_AND_ORGANIZATION ( #136, #100 ) ;
#176 = FACE_BOUND ( 'NONE', #52, .T. ) ;
#177 = DIRECTION ( 'NONE',  ( -1.000000000000000000, 0.000000000000000000, 0.000000000000000000 ) ) ;
#178 = APPROVAL_PERSON_ORGANIZATION ( #128, #32, #105 ) ;
#179 = PLANE ( 'NONE',  #156 ) ;
#180 = CARTESIAN_POINT ( 'NONE',  ( 0.000000000000000000, 0.000000000000000000, 100.0000000000000000 ) ) ;
#181 = VECTOR ( 'NONE', #197, 1000.000000000000000 ) ;
#182 = PRODUCT_DEFINITION ( 'NEZNÁMÝ', '', #60, #213 ) ;
#183 = EDGE_CURVE ( 'NONE', #4, #26, #162, .T. ) ;
#184 = AXIS2_PLACEMENT_3D ( 'NONE', #208, #131, #168 ) ;
#185 = CIRCLE ( 'NONE', #43, 5.000000000000000000 ) ;
#186 = CARTESIAN_POINT ( 'NONE',  ( -2.750000000000000000, 0.000000000000000000, 100.0000000000000000 ) ) ;
#187 = ORIENTED_EDGE ( 'NONE', *, *, #230, .T. ) ;
#188 = DIRECTION ( 'NONE',  ( 0.000000000000000000, 0.000000000000000000, 1.000000000000000000 ) ) ;
#189 = ORIENTED_EDGE ( 'NONE', *, *, #123, .T. ) ;
#190 = EDGE_LOOP ( 'NONE', ( #129, #155 ) ) ;
#191 = ADVANCED_FACE ( 'NONE', ( #212 ), #73, .T. ) ;
#192 = PERSON_AND_ORGANIZATION ( #136, #100 ) ;
#193 = LINE ( 'NONE', #88, #211 ) ;
#194 = CALENDAR_DATE ( 2023, 12, 2 ) ;
#195 = CARTESIAN_POINT ( 'NONE',  ( -5.000000000000000000, 0.000000000000000000, 3.000000000000000000 ) ) ;
#196 = DIRECTION ( 'NONE',  ( 1.000000000000000000, 0.000000000000000000, -0.000000000000000000 ) ) ;
#197 = DIRECTION ( 'NONE',  ( -0.000000000000000000, -0.000000000000000000, -1.000000000000000000 ) ) ;
#198 = MANIFOLD_SOLID_BREP ( 'Pøidat vysunutím3', #120 ) ;
#199 = DIRECTION ( 'NONE',  ( -1.000000000000000000, 0.000000000000000000, 0.000000000000000000 ) ) ;
#200 = EDGE_CURVE ( 'NONE', #127, #171, #22, .T. ) ;
#201 = CIRCLE ( 'NONE', #121, 5.000000000000000000 ) ;
#202 = ADVANCED_FACE ( 'NONE', ( #77 ), #163, .T. ) ;
#203 = ORIENTED_EDGE ( 'NONE', *, *, #14, .F. ) ;
#204 = DIRECTION ( 'NONE',  ( -1.000000000000000000, 0.000000000000000000, 0.000000000000000000 ) ) ;
#205 = APPROVAL_STATUS ( 'not_yet_approved' ) ;
#206 = CALENDAR_DATE ( 2023, 12, 2 ) ;
#207 = ORIENTED_EDGE ( 'NONE', *, *, #68, .F. ) ;
#208 = CARTESIAN_POINT ( 'NONE',  ( 0.000000000000000000, 0.000000000000000000, 0.000000000000000000 ) ) ;
#209 = DIRECTION ( 'NONE',  ( 0.000000000000000000, 0.000000000000000000, 1.000000000000000000 ) ) ;
#210 = DIRECTION ( 'NONE',  ( 1.000000000000000000, 0.000000000000000000, 0.000000000000000000 ) ) ;
#211 = VECTOR ( 'NONE', #174, 1000.000000000000000 ) ;
#212 = FACE_OUTER_BOUND ( 'NONE', #6, .T. ) ;
#213 = DESIGN_CONTEXT ( 'detailed design', #10, 'design' ) ;
#214 = EDGE_CURVE ( 'NONE', #104, #26, #122, .T. ) ;
#215 = CARTESIAN_POINT ( 'NONE',  ( 2.750000000000000000, 3.367778697655220519E-16, 100.0000000000000000 ) ) ;
#216 = AXIS2_PLACEMENT_3D ( 'NONE', #76, #139, #55 ) ;
#217 = CC_DESIGN_SECURITY_CLASSIFICATION ( #243, ( #60 ) ) ;
#218 = ORIENTED_EDGE ( 'NONE', *, *, #230, .F. ) ;
#219 = APPROVAL_PERSON_ORGANIZATION ( #228, #44, #41 ) ;
#220 = DIRECTION ( 'NONE',  ( 1.000000000000000000, 0.000000000000000000, 0.000000000000000000 ) ) ;
#221 = COORDINATED_UNIVERSAL_TIME_OFFSET ( 1, 0, .AHEAD. ) ;
#222 = ORIENTED_EDGE ( 'NONE', *, *, #200, .T. ) ;
#223 = MECHANICAL_CONTEXT ( 'NONE', #159, 'mechanical' ) ;
#224 = VERTEX_POINT ( 'NONE', #69 ) ;
#225 = FACE_OUTER_BOUND ( 'NONE', #247, .T. ) ;
#226 = PERSON_AND_ORGANIZATION ( #136, #100 ) ;
#227 = FACE_OUTER_BOUND ( 'NONE', #167, .T. ) ;
#228 = PERSON_AND_ORGANIZATION ( #136, #100 ) ;
#229 = DIRECTION ( 'NONE',  ( 1.000000000000000000, 0.000000000000000000, 0.000000000000000000 ) ) ;
#230 = EDGE_CURVE ( 'NONE', #127, #53, #39, .T. ) ;
#231 = FACE_OUTER_BOUND ( 'NONE', #238, .T. ) ;
#232 =( GEOMETRIC_REPRESENTATION_CONTEXT ( 3 ) GLOBAL_UNCERTAINTY_ASSIGNED_CONTEXT ( ( #119 ) ) GLOBAL_UNIT_ASSIGNED_CONTEXT ( ( #241, #125, #89 ) ) REPRESENTATION_CONTEXT ( 'NONE', 'WORKASPACE' ) );
#233 = PERSON_AND_ORGANIZATION_ROLE ( 'design_supplier' ) ;
#234 = DATE_AND_TIME ( #59, #140 ) ;
#235 = LOCAL_TIME ( 12, 42, 47.00000000000000000, #248 ) ;
#236 = CC_DESIGN_DATE_AND_TIME_ASSIGNMENT ( #234, #161, ( #243 ) ) ;
#237 = ORIENTED_EDGE ( 'NONE', *, *, #62, .T. ) ;
#238 = EDGE_LOOP ( 'NONE', ( #124, #207, #132, #102 ) ) ;
#239 = EDGE_CURVE ( 'NONE', #224, #4, #5, .T. ) ;
#240 = PRODUCT_DEFINITION_SHAPE ( 'NONE', 'NONE',  #182 ) ;
#241 =( LENGTH_UNIT ( ) NAMED_UNIT ( * ) SI_UNIT ( .MILLI., .METRE. ) );
#242 = ORIENTED_EDGE ( 'NONE', *, *, #214, .F. ) ;
#243 = SECURITY_CLASSIFICATION ( '', '', #93 ) ;
#244 = PERSON_AND_ORGANIZATION_ROLE ( 'creator' ) ;
#245 = PRODUCT ( 'e30b', 'e30b', '', ( #223 ) ) ;
#246 = DIRECTION ( 'NONE',  ( -0.000000000000000000, -0.000000000000000000, -1.000000000000000000 ) ) ;
#247 = EDGE_LOOP ( 'NONE', ( #237, #187 ) ) ;
#248 = COORDINATED_UNIVERSAL_TIME_OFFSET ( 1, 0, .AHEAD. ) ;
#249 = CARTESIAN_POINT ( 'NONE',  ( 0.000000000000000000, 0.000000000000000000, 0.000000000000000000 ) ) ;
#250 = APPROVAL_PERSON_ORGANIZATION ( #192, #133, #33 ) ;
#251 = CARTESIAN_POINT ( 'NONE',  ( 0.000000000000000000, 0.000000000000000000, 3.000000000000000000 ) ) ;
#252 = CARTESIAN_POINT ( 'NONE',  ( 2.750000000000000000, 3.367778697655220519E-16, 3.000000000000000000 ) ) ;
#253 = PRODUCT_RELATED_PRODUCT_CATEGORY ( 'detail', '', ( #245 ) ) ;
#254 = PERSON_AND_ORGANIZATION ( #136, #100 ) ;
#255 = DIRECTION ( 'NONE',  ( -0.000000000000000000, -0.000000000000000000, -1.000000000000000000 ) ) ;
ENDSEC;
END-ISO-10303-21;
