ISO-10303-21;
HEADER;
FILE_DESCRIPTION (( 'STEP AP203' ),
    '1' );
FILE_NAME ('7793.STEP',
    '2023-02-12T11:39:04',
    ( '' ),
    ( '' ),
    'SwSTEP 2.0',
    'SolidWorks 2019',
    '' );
FILE_SCHEMA (( 'CONFIG_CONTROL_DESIGN' ));
ENDSEC;

DATA;
#1 = PERSON_AND_ORGANIZATION ( #173, #36 ) ;
#2 = COORDINATED_UNIVERSAL_TIME_OFFSET ( 1, 0, .AHEAD. ) ;
#3 = COORDINATED_UNIVERSAL_TIME_OFFSET ( 1, 0, .AHEAD. ) ;
#4 = COORDINATED_UNIVERSAL_TIME_OFFSET ( 1, 0, .AHEAD. ) ;
#5 = CLOSED_SHELL ( 'NONE', ( #61, #42, #245, #93, #206, #112, #208 ) ) ;
#6 = FACE_OUTER_BOUND ( 'NONE', #252, .T. ) ;
#7 = ORIENTED_EDGE ( 'NONE', *, *, #48, .F. ) ;
#8 = DIRECTION ( 'NONE',  ( -0.000000000000000000, -0.000000000000000000, -1.000000000000000000 ) ) ;
#9 = VERTEX_POINT ( 'NONE', #250 ) ;
#10 = CARTESIAN_POINT ( 'NONE',  ( 0.000000000000000000, 0.000000000000000000, 125.0000000000000000 ) ) ;
#11 = APPROVAL ( #21, 'NEURÈENÝ' ) ;
#12 = DIRECTION ( 'NONE',  ( -0.000000000000000000, -0.000000000000000000, -1.000000000000000000 ) ) ;
#13 = CC_DESIGN_PERSON_AND_ORGANIZATION_ASSIGNMENT ( #179, #180, ( #22 ) ) ;
#14 = AXIS2_PLACEMENT_3D ( 'NONE', #244, #186, #130 ) ;
#15 = DIRECTION ( 'NONE',  ( -0.000000000000000000, -0.000000000000000000, -1.000000000000000000 ) ) ;
#16 = AXIS2_PLACEMENT_3D ( 'NONE', #204, #184, #122 ) ;
#17 = LINE ( 'NONE', #178, #150 ) ;
#18 = FACE_OUTER_BOUND ( 'NONE', #169, .T. ) ;
#19 = ORIENTED_EDGE ( 'NONE', *, *, #234, .F. ) ;
#20 = APPROVAL ( #165, 'NEURÈENÝ' ) ;
#21 = APPROVAL_STATUS ( 'not_yet_approved' ) ;
#22 = PRODUCT_DEFINITION_FORMATION_WITH_SPECIFIED_SOURCE ( 'LIBOVOLNÝ', '', #128, .NOT_KNOWN. ) ;
#23 = SHAPE_DEFINITION_REPRESENTATION ( #83, #190 ) ;
#24 = ORIENTED_EDGE ( 'NONE', *, *, #110, .T. ) ;
#25 = DIRECTION ( 'NONE',  ( 1.000000000000000000, 0.000000000000000000, 0.000000000000000000 ) ) ;
#26 = ORIENTED_EDGE ( 'NONE', *, *, #66, .T. ) ;
#27 = AXIS2_PLACEMENT_3D ( 'NONE', #149, #12, #88 ) ;
#28 = PLANE ( 'NONE',  #77 ) ;
#29 = LOCAL_TIME ( 12, 39, 4.000000000000000000, #166 ) ;
#30 = DIRECTION ( 'NONE',  ( 0.000000000000000000, 0.000000000000000000, 1.000000000000000000 ) ) ;
#31 = DIRECTION ( 'NONE',  ( 1.000000000000000000, 0.000000000000000000, 0.000000000000000000 ) ) ;
#32 = CARTESIAN_POINT ( 'NONE',  ( 0.000000000000000000, 0.000000000000000000, 5.000000000000000000 ) ) ;
#33 = CARTESIAN_POINT ( 'NONE',  ( 3.100000000000000089, 3.796405077356794918E-16, 5.000000000000000000 ) ) ;
#34 = DIRECTION ( 'NONE',  ( -1.000000000000000000, 0.000000000000000000, 0.000000000000000000 ) ) ;
#35 = FACE_OUTER_BOUND ( 'NONE', #230, .T. ) ;
#36 = ORGANIZATION ( 'NEURÈENÝ', 'NEURÈENÝ', '' ) ;
#37 = EDGE_LOOP ( 'NONE', ( #175, #247, #203, #24 ) ) ;
#38 = ORIENTED_EDGE ( 'NONE', *, *, #188, .F. ) ;
#39 = CALENDAR_DATE ( 2023, 12, 2 ) ;
#40 = CIRCLE ( 'NONE', #220, 6.000000000000000888 ) ;
#41 = CALENDAR_DATE ( 2023, 12, 2 ) ;
#42 = ADVANCED_FACE ( 'NONE', ( #213 ), #196, .T. ) ;
#43 = ORIENTED_EDGE ( 'NONE', *, *, #188, .T. ) ;
#44 = CC_DESIGN_APPROVAL ( #248, ( #22 ) ) ;
#45 = DIRECTION ( 'NONE',  ( 0.000000000000000000, 0.000000000000000000, 1.000000000000000000 ) ) ;
#46 =( GEOMETRIC_REPRESENTATION_CONTEXT ( 3 ) GLOBAL_UNCERTAINTY_ASSIGNED_CONTEXT ( ( #111 ) ) GLOBAL_UNIT_ASSIGNED_CONTEXT ( ( #109, #212, #145 ) ) REPRESENTATION_CONTEXT ( 'NONE', 'WORKASPACE' ) );
#47 = PRODUCT_DEFINITION ( 'NEZNÁMÝ', '', #22, #50 ) ;
#48 = EDGE_CURVE ( 'NONE', #9, #205, #163, .T. ) ;
#49 = FACE_OUTER_BOUND ( 'NONE', #104, .T. ) ;
#50 = DESIGN_CONTEXT ( 'detailed design', #84, 'design' ) ;
#51 = DATE_AND_TIME ( #135, #29 ) ;
#52 = SECURITY_CLASSIFICATION_LEVEL ( 'unclassified' ) ;
#53 = PERSON_AND_ORGANIZATION_ROLE ( 'creator' ) ;
#54 = VERTEX_POINT ( 'NONE', #160 ) ;
#55 = AXIS2_PLACEMENT_3D ( 'NONE', #209, #68, #31 ) ;
#56 = LOCAL_TIME ( 12, 39, 4.000000000000000000, #4 ) ;
#57 = APPROVAL_ROLE ( '' ) ;
#58 = CARTESIAN_POINT ( 'NONE',  ( 0.000000000000000000, 0.000000000000000000, 125.0000000000000000 ) ) ;
#59 = DIRECTION ( 'NONE',  ( 0.000000000000000000, 0.000000000000000000, 1.000000000000000000 ) ) ;
#60 = ORIENTED_EDGE ( 'NONE', *, *, #110, .F. ) ;
#61 = ADVANCED_FACE ( 'NONE', ( #18 ), #92, .T. ) ;
#62 = CIRCLE ( 'NONE', #67, 3.100000000000000089 ) ;
#63 = MECHANICAL_CONTEXT ( 'NONE', #96, 'mechanical' ) ;
#64 = ORIENTED_EDGE ( 'NONE', *, *, #192, .T. ) ;
#65 = VERTEX_POINT ( 'NONE', #33 ) ;
#66 = EDGE_CURVE ( 'NONE', #205, #214, #224, .T. ) ;
#67 = AXIS2_PLACEMENT_3D ( 'NONE', #129, #45, #172 ) ;
#68 = DIRECTION ( 'NONE',  ( 0.000000000000000000, 0.000000000000000000, 1.000000000000000000 ) ) ;
#69 = CC_DESIGN_DATE_AND_TIME_ASSIGNMENT ( #51, #138, ( #47 ) ) ;
#70 = DIRECTION ( 'NONE',  ( 1.000000000000000000, 0.000000000000000000, 0.000000000000000000 ) ) ;
#71 = AXIS2_PLACEMENT_3D ( 'NONE', #32, #15, #90 ) ;
#72 = CARTESIAN_POINT ( 'NONE',  ( 6.000000000000000888, 7.347880794884120722E-16, 5.000000000000000000 ) ) ;
#73 = CC_DESIGN_DATE_AND_TIME_ASSIGNMENT ( #99, #113, ( #117 ) ) ;
#74 = PERSON_AND_ORGANIZATION ( #173, #36 ) ;
#75 = AXIS2_PLACEMENT_3D ( 'NONE', #167, #59, #101 ) ;
#76 = PERSON_AND_ORGANIZATION ( #173, #36 ) ;
#77 = AXIS2_PLACEMENT_3D ( 'NONE', #58, #144, #218 ) ;
#78 = CARTESIAN_POINT ( 'NONE',  ( 0.000000000000000000, 0.000000000000000000, 5.000000000000000000 ) ) ;
#79 = ORIENTED_EDGE ( 'NONE', *, *, #234, .T. ) ;
#80 = DIRECTION ( 'NONE',  ( 0.000000000000000000, 0.000000000000000000, 1.000000000000000000 ) ) ;
#81 = ORIENTED_EDGE ( 'NONE', *, *, #98, .T. ) ;
#82 = DIRECTION ( 'NONE',  ( 0.000000000000000000, 0.000000000000000000, 1.000000000000000000 ) ) ;
#83 = PRODUCT_DEFINITION_SHAPE ( 'NONE', 'NONE',  #47 ) ;
#84 = APPLICATION_CONTEXT ( 'configuration controlled 3d designs of mechanical parts and assemblies' ) ;
#85 = DIRECTION ( 'NONE',  ( -0.000000000000000000, -0.000000000000000000, -1.000000000000000000 ) ) ;
#86 = LOCAL_TIME ( 12, 39, 4.000000000000000000, #142 ) ;
#87 = DIRECTION ( 'NONE',  ( 1.000000000000000000, 0.000000000000000000, 0.000000000000000000 ) ) ;
#88 = DIRECTION ( 'NONE',  ( -1.000000000000000000, 0.000000000000000000, 0.000000000000000000 ) ) ;
#89 = EDGE_CURVE ( 'NONE', #54, #65, #17, .T. ) ;
#90 = DIRECTION ( 'NONE',  ( -1.000000000000000000, 0.000000000000000000, 0.000000000000000000 ) ) ;
#91 = EDGE_CURVE ( 'NONE', #183, #222, #152, .T. ) ;
#92 = CYLINDRICAL_SURFACE ( 'NONE', #228, 3.100000000000000089 ) ;
#93 = ADVANCED_FACE ( 'NONE', ( #106, #35 ), #148, .T. ) ;
#94 = CIRCLE ( 'NONE', #105, 3.100000000000000089 ) ;
#95 = APPROVAL_PERSON_ORGANIZATION ( #1, #11, #216 ) ;
#96 = APPLICATION_CONTEXT ( 'configuration controlled 3d designs of mechanical parts and assemblies' ) ;
#97 = CALENDAR_DATE ( 2023, 12, 2 ) ;
#98 = EDGE_CURVE ( 'NONE', #214, #205, #40, .T. ) ;
#99 = DATE_AND_TIME ( #236, #217 ) ;
#100 = ORIENTED_EDGE ( 'NONE', *, *, #66, .F. ) ;
#101 = DIRECTION ( 'NONE',  ( 1.000000000000000000, 0.000000000000000000, -0.000000000000000000 ) ) ;
#102 = APPROVAL_DATE_TIME ( #200, #248 ) ;
#103 = AXIS2_PLACEMENT_3D ( 'NONE', #182, #168, #25 ) ;
#104 = EDGE_LOOP ( 'NONE', ( #7, #123, #191, #81 ) ) ;
#105 = AXIS2_PLACEMENT_3D ( 'NONE', #78, #30, #70 ) ;
#106 = FACE_BOUND ( 'NONE', #243, .T. ) ;
#107 = CIRCLE ( 'NONE', #231, 6.000000000000000888 ) ;
#108 = VERTEX_POINT ( 'NONE', #124 ) ;
#109 =( LENGTH_UNIT ( ) NAMED_UNIT ( * ) SI_UNIT ( .MILLI., .METRE. ) );
#110 = EDGE_CURVE ( 'NONE', #222, #65, #94, .T. ) ;
#111 = UNCERTAINTY_MEASURE_WITH_UNIT (LENGTH_MEASURE( 1.000000000000000082E-05 ), #109, 'distance_accuracy_value', 'NONE');
#112 = ADVANCED_FACE ( 'NONE', ( #156 ), #232, .T. ) ;
#113 = DATE_TIME_ROLE ( 'classification_date' ) ;
#114 = DIRECTION ( 'NONE',  ( 0.000000000000000000, 0.000000000000000000, 1.000000000000000000 ) ) ;
#115 = PERSON_AND_ORGANIZATION_ROLE ( 'classification_officer' ) ;
#116 = CC_DESIGN_PERSON_AND_ORGANIZATION_ASSIGNMENT ( #202, #136, ( #128 ) ) ;
#117 = SECURITY_CLASSIFICATION ( '', '', #52 ) ;
#118 = PERSON_AND_ORGANIZATION ( #173, #36 ) ;
#119 = ORIENTED_EDGE ( 'NONE', *, *, #226, .T. ) ;
#120 = CC_DESIGN_PERSON_AND_ORGANIZATION_ASSIGNMENT ( #255, #53, ( #47 ) ) ;
#121 = CARTESIAN_POINT ( 'NONE',  ( -6.000000000000000888, 0.000000000000000000, 0.000000000000000000 ) ) ;
#122 = DIRECTION ( 'NONE',  ( 1.000000000000000000, 0.000000000000000000, 0.000000000000000000 ) ) ;
#123 = ORIENTED_EDGE ( 'NONE', *, *, #226, .F. ) ;
#124 = CARTESIAN_POINT ( 'NONE',  ( -6.000000000000000888, 0.000000000000000000, 5.000000000000000000 ) ) ;
#125 = PLANE ( 'NONE',  #14 ) ;
#126 = MANIFOLD_SOLID_BREP ( 'Pøidat vysunutím3', #5 ) ;
#127 = CARTESIAN_POINT ( 'NONE',  ( 0.000000000000000000, 0.000000000000000000, 0.000000000000000000 ) ) ;
#128 = PRODUCT ( '7793', '7793', '', ( #63 ) ) ;
#129 = CARTESIAN_POINT ( 'NONE',  ( 0.000000000000000000, 0.000000000000000000, 125.0000000000000000 ) ) ;
#130 = DIRECTION ( 'NONE',  ( 1.000000000000000000, 0.000000000000000000, -0.000000000000000000 ) ) ;
#131 = CC_DESIGN_PERSON_AND_ORGANIZATION_ASSIGNMENT ( #76, #115, ( #117 ) ) ;
#132 = ORIENTED_EDGE ( 'NONE', *, *, #143, .T. ) ;
#133 = CC_DESIGN_APPROVAL ( #11, ( #47 ) ) ;
#134 = VECTOR ( 'NONE', #233, 1000.000000000000000 ) ;
#135 = CALENDAR_DATE ( 2023, 12, 2 ) ;
#136 = PERSON_AND_ORGANIZATION_ROLE ( 'design_owner' ) ;
#137 = PERSON_AND_ORGANIZATION ( #173, #36 ) ;
#138 = DATE_TIME_ROLE ( 'creation_date' ) ;
#139 = CIRCLE ( 'NONE', #55, 3.100000000000000089 ) ;
#140 = APPROVAL_DATE_TIME ( #197, #20 ) ;
#141 = ORIENTED_EDGE ( 'NONE', *, *, #98, .F. ) ;
#142 = COORDINATED_UNIVERSAL_TIME_OFFSET ( 1, 0, .AHEAD. ) ;
#143 = EDGE_CURVE ( 'NONE', #65, #222, #139, .T. ) ;
#144 = DIRECTION ( 'NONE',  ( 0.000000000000000000, 0.000000000000000000, 1.000000000000000000 ) ) ;
#145 =( NAMED_UNIT ( * ) SI_UNIT ( $, .STERADIAN. ) SOLID_ANGLE_UNIT ( ) );
#146 = CARTESIAN_POINT ( 'NONE',  ( 6.000000000000000888, 7.347880794884120722E-16, 0.000000000000000000 ) ) ;
#147 = EDGE_CURVE ( 'NONE', #108, #214, #174, .T. ) ;
#148 = PLANE ( 'NONE',  #75 ) ;
#149 = CARTESIAN_POINT ( 'NONE',  ( 0.000000000000000000, 0.000000000000000000, 125.0000000000000000 ) ) ;
#150 = VECTOR ( 'NONE', #254, 1000.000000000000000 ) ;
#151 = ORIENTED_EDGE ( 'NONE', *, *, #91, .F. ) ;
#152 = LINE ( 'NONE', #189, #215 ) ;
#153 = PRODUCT_RELATED_PRODUCT_CATEGORY ( 'detail', '', ( #128 ) ) ;
#154 = AXIS2_PLACEMENT_3D ( 'NONE', #159, #157, #34 ) ;
#155 = CC_DESIGN_APPROVAL ( #20, ( #117 ) ) ;
#156 = FACE_OUTER_BOUND ( 'NONE', #37, .T. ) ;
#157 = DIRECTION ( 'NONE',  ( -0.000000000000000000, -0.000000000000000000, -1.000000000000000000 ) ) ;
#158 = CARTESIAN_POINT ( 'NONE',  ( 0.000000000000000000, 0.000000000000000000, 0.000000000000000000 ) ) ;
#159 = CARTESIAN_POINT ( 'NONE',  ( 0.000000000000000000, 0.000000000000000000, 5.000000000000000000 ) ) ;
#160 = CARTESIAN_POINT ( 'NONE',  ( 3.100000000000000089, 3.796405077356794918E-16, 125.0000000000000000 ) ) ;
#161 = PERSON_AND_ORGANIZATION_ROLE ( 'creator' ) ;
#162 = CC_DESIGN_SECURITY_CLASSIFICATION ( #117, ( #22 ) ) ;
#163 = LINE ( 'NONE', #72, #134 ) ;
#164 = DATE_AND_TIME ( #97, #221 ) ;
#165 = APPROVAL_STATUS ( 'not_yet_approved' ) ;
#166 = COORDINATED_UNIVERSAL_TIME_OFFSET ( 1, 0, .AHEAD. ) ;
#167 = CARTESIAN_POINT ( 'NONE',  ( 0.000000000000000000, 0.000000000000000000, 5.000000000000000000 ) ) ;
#168 = DIRECTION ( 'NONE',  ( 0.000000000000000000, 0.000000000000000000, 1.000000000000000000 ) ) ;
#169 = EDGE_LOOP ( 'NONE', ( #38, #227, #132, #151 ) ) ;
#170 = CARTESIAN_POINT ( 'NONE',  ( 0.000000000000000000, 0.000000000000000000, 0.000000000000000000 ) ) ;
#171 = EDGE_LOOP ( 'NONE', ( #64, #43 ) ) ;
#172 = DIRECTION ( 'NONE',  ( 1.000000000000000000, 0.000000000000000000, 0.000000000000000000 ) ) ;
#173 = PERSON ( 'NEURÈENÝ', 'NEURÈENÝ', 'NEURÈENÝ', ('NEURÈENÝ'), ('NEURÈENÝ'), ('NEURÈENÝ') ) ;
#174 = LINE ( 'NONE', #246, #238 ) ;
#175 = ORIENTED_EDGE ( 'NONE', *, *, #89, .F. ) ;
#176 = AXIS2_PLACEMENT_3D ( 'NONE', #170, #82, #87 ) ;
#177 = ORIENTED_EDGE ( 'NONE', *, *, #48, .T. ) ;
#178 = CARTESIAN_POINT ( 'NONE',  ( 3.100000000000000089, 3.796405077356794918E-16, 125.0000000000000000 ) ) ;
#179 = PERSON_AND_ORGANIZATION ( #173, #36 ) ;
#180 = PERSON_AND_ORGANIZATION_ROLE ( 'design_supplier' ) ;
#181 = APPROVAL_ROLE ( '' ) ;
#182 = CARTESIAN_POINT ( 'NONE',  ( 0.000000000000000000, 0.000000000000000000, 125.0000000000000000 ) ) ;
#183 = VERTEX_POINT ( 'NONE', #241 ) ;
#184 = DIRECTION ( 'NONE',  ( 0.000000000000000000, 0.000000000000000000, 1.000000000000000000 ) ) ;
#185 = EDGE_LOOP ( 'NONE', ( #19, #177, #26, #210 ) ) ;
#186 = DIRECTION ( 'NONE',  ( 0.000000000000000000, 0.000000000000000000, 1.000000000000000000 ) ) ;
#187 = APPLICATION_PROTOCOL_DEFINITION ( 'international standard', 'config_control_design', 1994, #96 ) ;
#188 = EDGE_CURVE ( 'NONE', #54, #183, #62, .T. ) ;
#189 = CARTESIAN_POINT ( 'NONE',  ( -3.100000000000000089, 0.000000000000000000, 125.0000000000000000 ) ) ;
#190 = ADVANCED_BREP_SHAPE_REPRESENTATION ( '7793', ( #126, #176 ), #46 ) ;
#191 = ORIENTED_EDGE ( 'NONE', *, *, #147, .T. ) ;
#192 = EDGE_CURVE ( 'NONE', #183, #54, #211, .T. ) ;
#193 = ORIENTED_EDGE ( 'NONE', *, *, #143, .F. ) ;
#194 = CYLINDRICAL_SURFACE ( 'NONE', #71, 6.000000000000000888 ) ;
#195 = DIRECTION ( 'NONE',  ( 1.000000000000000000, 0.000000000000000000, 0.000000000000000000 ) ) ;
#196 = CYLINDRICAL_SURFACE ( 'NONE', #154, 6.000000000000000888 ) ;
#197 = DATE_AND_TIME ( #39, #56 ) ;
#198 = APPROVAL_PERSON_ORGANIZATION ( #118, #248, #57 ) ;
#199 = APPROVAL_STATUS ( 'not_yet_approved' ) ;
#200 = DATE_AND_TIME ( #41, #86 ) ;
#201 = DIRECTION ( 'NONE',  ( -0.000000000000000000, -0.000000000000000000, -1.000000000000000000 ) ) ;
#202 = PERSON_AND_ORGANIZATION ( #173, #36 ) ;
#203 = ORIENTED_EDGE ( 'NONE', *, *, #91, .T. ) ;
#204 = CARTESIAN_POINT ( 'NONE',  ( 0.000000000000000000, 0.000000000000000000, 5.000000000000000000 ) ) ;
#205 = VERTEX_POINT ( 'NONE', #146 ) ;
#206 = ADVANCED_FACE ( 'NONE', ( #6 ), #125, .F. ) ;
#207 = FACE_OUTER_BOUND ( 'NONE', #171, .T. ) ;
#208 = ADVANCED_FACE ( 'NONE', ( #207 ), #28, .T. ) ;
#209 = CARTESIAN_POINT ( 'NONE',  ( 0.000000000000000000, 0.000000000000000000, 5.000000000000000000 ) ) ;
#210 = ORIENTED_EDGE ( 'NONE', *, *, #147, .F. ) ;
#211 = CIRCLE ( 'NONE', #103, 3.100000000000000089 ) ;
#212 =( NAMED_UNIT ( * ) PLANE_ANGLE_UNIT ( ) SI_UNIT ( $, .RADIAN. ) );
#213 = FACE_OUTER_BOUND ( 'NONE', #185, .T. ) ;
#214 = VERTEX_POINT ( 'NONE', #121 ) ;
#215 = VECTOR ( 'NONE', #8, 1000.000000000000000 ) ;
#216 = APPROVAL_ROLE ( '' ) ;
#217 = LOCAL_TIME ( 12, 39, 4.000000000000000000, #2 ) ;
#218 = DIRECTION ( 'NONE',  ( 1.000000000000000000, 0.000000000000000000, -0.000000000000000000 ) ) ;
#219 = CC_DESIGN_PERSON_AND_ORGANIZATION_ASSIGNMENT ( #74, #161, ( #22 ) ) ;
#220 = AXIS2_PLACEMENT_3D ( 'NONE', #127, #80, #240 ) ;
#221 = LOCAL_TIME ( 12, 39, 4.000000000000000000, #3 ) ;
#222 = VERTEX_POINT ( 'NONE', #239 ) ;
#223 = DIRECTION ( 'NONE',  ( -1.000000000000000000, 0.000000000000000000, 0.000000000000000000 ) ) ;
#224 = CIRCLE ( 'NONE', #242, 6.000000000000000888 ) ;
#225 = CIRCLE ( 'NONE', #16, 6.000000000000000888 ) ;
#226 = EDGE_CURVE ( 'NONE', #108, #9, #225, .T. ) ;
#227 = ORIENTED_EDGE ( 'NONE', *, *, #89, .T. ) ;
#228 = AXIS2_PLACEMENT_3D ( 'NONE', #10, #85, #223 ) ;
#229 = DIRECTION ( 'NONE',  ( 1.000000000000000000, 0.000000000000000000, 0.000000000000000000 ) ) ;
#230 = EDGE_LOOP ( 'NONE', ( #119, #79 ) ) ;
#231 = AXIS2_PLACEMENT_3D ( 'NONE', #249, #251, #229 ) ;
#232 = CYLINDRICAL_SURFACE ( 'NONE', #27, 3.100000000000000089 ) ;
#233 = DIRECTION ( 'NONE',  ( -0.000000000000000000, -0.000000000000000000, -1.000000000000000000 ) ) ;
#234 = EDGE_CURVE ( 'NONE', #9, #108, #107, .T. ) ;
#235 = APPLICATION_PROTOCOL_DEFINITION ( 'international standard', 'config_control_design', 1994, #84 ) ;
#236 = CALENDAR_DATE ( 2023, 12, 2 ) ;
#237 = APPROVAL_DATE_TIME ( #164, #11 ) ;
#238 = VECTOR ( 'NONE', #201, 1000.000000000000000 ) ;
#239 = CARTESIAN_POINT ( 'NONE',  ( -3.100000000000000089, 0.000000000000000000, 5.000000000000000000 ) ) ;
#240 = DIRECTION ( 'NONE',  ( 1.000000000000000000, 0.000000000000000000, 0.000000000000000000 ) ) ;
#241 = CARTESIAN_POINT ( 'NONE',  ( -3.100000000000000089, 0.000000000000000000, 125.0000000000000000 ) ) ;
#242 = AXIS2_PLACEMENT_3D ( 'NONE', #158, #114, #195 ) ;
#243 = EDGE_LOOP ( 'NONE', ( #60, #193 ) ) ;
#244 = CARTESIAN_POINT ( 'NONE',  ( 0.000000000000000000, 0.000000000000000000, 0.000000000000000000 ) ) ;
#245 = ADVANCED_FACE ( 'NONE', ( #49 ), #194, .T. ) ;
#246 = CARTESIAN_POINT ( 'NONE',  ( -6.000000000000000888, 0.000000000000000000, 5.000000000000000000 ) ) ;
#247 = ORIENTED_EDGE ( 'NONE', *, *, #192, .F. ) ;
#248 = APPROVAL ( #199, 'NEURÈENÝ' ) ;
#249 = CARTESIAN_POINT ( 'NONE',  ( 0.000000000000000000, 0.000000000000000000, 5.000000000000000000 ) ) ;
#250 = CARTESIAN_POINT ( 'NONE',  ( 6.000000000000000888, 7.347880794884120722E-16, 5.000000000000000000 ) ) ;
#251 = DIRECTION ( 'NONE',  ( 0.000000000000000000, 0.000000000000000000, 1.000000000000000000 ) ) ;
#252 = EDGE_LOOP ( 'NONE', ( #141, #100 ) ) ;
#253 = APPROVAL_PERSON_ORGANIZATION ( #137, #20, #181 ) ;
#254 = DIRECTION ( 'NONE',  ( -0.000000000000000000, -0.000000000000000000, -1.000000000000000000 ) ) ;
#255 = PERSON_AND_ORGANIZATION ( #173, #36 ) ;
ENDSEC;
END-ISO-10303-21;
