ISO-10303-21;
HEADER;
FILE_DESCRIPTION (( 'STEP AP203' ),
    '1' );
FILE_NAME ('c89b.STEP',
    '2023-02-12T11:21:59',
    ( '' ),
    ( '' ),
    'SwSTEP 2.0',
    'SolidWorks 2019',
    '' );
FILE_SCHEMA (( 'CONFIG_CONTROL_DESIGN' ));
ENDSEC;

DATA;
#1 = DIRECTION ( 'NONE',  ( 0.000000000000000000, 0.000000000000000000, 1.000000000000000000 ) ) ;
#2 = CC_DESIGN_PERSON_AND_ORGANIZATION_ASSIGNMENT ( #189, #149, ( #108 ) ) ;
#3 = EDGE_LOOP ( 'NONE', ( #157, #49, #9, #6 ) ) ;
#4 = DIRECTION ( 'NONE',  ( 1.000000000000000000, 0.000000000000000000, 0.000000000000000000 ) ) ;
#5 = PLANE ( 'NONE',  #66 ) ;
#6 = ORIENTED_EDGE ( 'NONE', *, *, #179, .T. ) ;
#7 = ADVANCED_FACE ( 'NONE', ( #139 ), #254, .T. ) ;
#8 = CIRCLE ( 'NONE', #95, 6.000000000000000888 ) ;
#9 = ORIENTED_EDGE ( 'NONE', *, *, #17, .T. ) ;
#10 = ADVANCED_BREP_SHAPE_REPRESENTATION ( 'c89b', ( #18, #131 ), #39 ) ;
#11 = LOCAL_TIME ( 12, 21, 59.00000000000000000, #171 ) ;
#12 = COORDINATED_UNIVERSAL_TIME_OFFSET ( 1, 0, .AHEAD. ) ;
#13 = PERSON_AND_ORGANIZATION_ROLE ( 'classification_officer' ) ;
#14 = DIRECTION ( 'NONE',  ( 0.000000000000000000, 0.000000000000000000, 1.000000000000000000 ) ) ;
#15 = APPROVAL_DATE_TIME ( #38, #93 ) ;
#16 = ORIENTED_EDGE ( 'NONE', *, *, #191, .F. ) ;
#17 = EDGE_CURVE ( 'NONE', #167, #23, #116, .T. ) ;
#18 = MANIFOLD_SOLID_BREP ( 'Pøidat vysunutím3', #197 ) ;
#19 = APPROVAL_PERSON_ORGANIZATION ( #29, #118, #70 ) ;
#20 = CARTESIAN_POINT ( 'NONE',  ( 0.000000000000000000, 0.000000000000000000, 5.000000000000000000 ) ) ;
#21 = ORIENTED_EDGE ( 'NONE', *, *, #50, .T. ) ;
#22 = CARTESIAN_POINT ( 'NONE',  ( 0.000000000000000000, 0.000000000000000000, 0.000000000000000000 ) ) ;
#23 = VERTEX_POINT ( 'NONE', #154 ) ;
#24 = CARTESIAN_POINT ( 'NONE',  ( 0.000000000000000000, 0.000000000000000000, 5.000000000000000000 ) ) ;
#25 = CARTESIAN_POINT ( 'NONE',  ( -3.750000000000000000, 0.000000000000000000, 160.0000000000000000 ) ) ;
#26 = AXIS2_PLACEMENT_3D ( 'NONE', #24, #219, #81 ) ;
#27 = PRODUCT ( 'c89b', 'c89b', '', ( #48 ) ) ;
#28 = CC_DESIGN_PERSON_AND_ORGANIZATION_ASSIGNMENT ( #35, #192, ( #147 ) ) ;
#29 = PERSON_AND_ORGANIZATION ( #152, #214 ) ;
#30 = AXIS2_PLACEMENT_3D ( 'NONE', #135, #14, #99 ) ;
#31 = APPROVAL_ROLE ( '' ) ;
#32 = LOCAL_TIME ( 12, 21, 59.00000000000000000, #225 ) ;
#33 = DATE_AND_TIME ( #146, #32 ) ;
#34 = AXIS2_PLACEMENT_3D ( 'NONE', #44, #238, #221 ) ;
#35 = PERSON_AND_ORGANIZATION ( #152, #214 ) ;
#36 = DIRECTION ( 'NONE',  ( 0.000000000000000000, 0.000000000000000000, 1.000000000000000000 ) ) ;
#37 = CARTESIAN_POINT ( 'NONE',  ( 0.000000000000000000, 0.000000000000000000, 0.000000000000000000 ) ) ;
#38 = DATE_AND_TIME ( #112, #251 ) ;
#39 =( GEOMETRIC_REPRESENTATION_CONTEXT ( 3 ) GLOBAL_UNCERTAINTY_ASSIGNED_CONTEXT ( ( #176 ) ) GLOBAL_UNIT_ASSIGNED_CONTEXT ( ( #65, #86, #119 ) ) REPRESENTATION_CONTEXT ( 'NONE', 'WORKASPACE' ) );
#40 = DIRECTION ( 'NONE',  ( -0.000000000000000000, -0.000000000000000000, -1.000000000000000000 ) ) ;
#41 = DIRECTION ( 'NONE',  ( 1.000000000000000000, 0.000000000000000000, 0.000000000000000000 ) ) ;
#42 = VECTOR ( 'NONE', #235, 1000.000000000000000 ) ;
#43 = CARTESIAN_POINT ( 'NONE',  ( 0.000000000000000000, 0.000000000000000000, 0.000000000000000000 ) ) ;
#44 = CARTESIAN_POINT ( 'NONE',  ( 0.000000000000000000, 0.000000000000000000, 0.000000000000000000 ) ) ;
#45 = CARTESIAN_POINT ( 'NONE',  ( 0.000000000000000000, 0.000000000000000000, 160.0000000000000000 ) ) ;
#46 = CIRCLE ( 'NONE', #203, 3.750000000000000000 ) ;
#47 = FACE_OUTER_BOUND ( 'NONE', #223, .T. ) ;
#48 = MECHANICAL_CONTEXT ( 'NONE', #129, 'mechanical' ) ;
#49 = ORIENTED_EDGE ( 'NONE', *, *, #133, .F. ) ;
#50 = EDGE_CURVE ( 'NONE', #240, #255, #111, .T. ) ;
#51 = ORIENTED_EDGE ( 'NONE', *, *, #230, .T. ) ;
#52 = DATE_TIME_ROLE ( 'creation_date' ) ;
#53 = SHAPE_DEFINITION_REPRESENTATION ( #217, #10 ) ;
#54 = EDGE_CURVE ( 'NONE', #57, #167, #175, .T. ) ;
#55 = DIRECTION ( 'NONE',  ( 0.000000000000000000, 0.000000000000000000, 1.000000000000000000 ) ) ;
#56 = COORDINATED_UNIVERSAL_TIME_OFFSET ( 1, 0, .AHEAD. ) ;
#57 = VERTEX_POINT ( 'NONE', #113 ) ;
#58 = CC_DESIGN_PERSON_AND_ORGANIZATION_ASSIGNMENT ( #215, #227, ( #147 ) ) ;
#59 = CARTESIAN_POINT ( 'NONE',  ( 3.750000000000000000, 4.592425496802573972E-16, 160.0000000000000000 ) ) ;
#60 = CARTESIAN_POINT ( 'NONE',  ( 0.000000000000000000, 0.000000000000000000, 160.0000000000000000 ) ) ;
#61 = FACE_OUTER_BOUND ( 'NONE', #134, .T. ) ;
#62 = LINE ( 'NONE', #180, #42 ) ;
#63 = DIRECTION ( 'NONE',  ( -1.000000000000000000, 0.000000000000000000, 0.000000000000000000 ) ) ;
#64 = DIRECTION ( 'NONE',  ( 1.000000000000000000, 0.000000000000000000, -0.000000000000000000 ) ) ;
#65 =( LENGTH_UNIT ( ) NAMED_UNIT ( * ) SI_UNIT ( .MILLI., .METRE. ) );
#66 = AXIS2_PLACEMENT_3D ( 'NONE', #162, #1, #64 ) ;
#67 = APPROVAL_STATUS ( 'not_yet_approved' ) ;
#68 = ORIENTED_EDGE ( 'NONE', *, *, #156, .T. ) ;
#69 = EDGE_LOOP ( 'NONE', ( #181, #16 ) ) ;
#70 = APPROVAL_ROLE ( '' ) ;
#71 = EDGE_CURVE ( 'NONE', #57, #207, #233, .T. ) ;
#72 = ORIENTED_EDGE ( 'NONE', *, *, #163, .F. ) ;
#73 = CC_DESIGN_APPROVAL ( #118, ( #108 ) ) ;
#74 = CARTESIAN_POINT ( 'NONE',  ( -3.750000000000000000, 0.000000000000000000, 5.000000000000000000 ) ) ;
#75 = DIRECTION ( 'NONE',  ( -1.000000000000000000, 0.000000000000000000, 0.000000000000000000 ) ) ;
#76 = APPROVAL_STATUS ( 'not_yet_approved' ) ;
#77 = PLANE ( 'NONE',  #128 ) ;
#78 = CIRCLE ( 'NONE', #125, 6.000000000000000888 ) ;
#79 = CARTESIAN_POINT ( 'NONE',  ( -6.000000000000000888, 0.000000000000000000, 5.000000000000000000 ) ) ;
#80 = CC_DESIGN_DATE_AND_TIME_ASSIGNMENT ( #33, #52, ( #108 ) ) ;
#81 = DIRECTION ( 'NONE',  ( 1.000000000000000000, 0.000000000000000000, 0.000000000000000000 ) ) ;
#82 = CIRCLE ( 'NONE', #250, 6.000000000000000888 ) ;
#83 = CARTESIAN_POINT ( 'NONE',  ( 0.000000000000000000, 0.000000000000000000, 160.0000000000000000 ) ) ;
#84 = CARTESIAN_POINT ( 'NONE',  ( 3.750000000000000000, 4.592425496802573972E-16, 5.000000000000000000 ) ) ;
#85 = ORIENTED_EDGE ( 'NONE', *, *, #133, .T. ) ;
#86 =( NAMED_UNIT ( * ) PLANE_ANGLE_UNIT ( ) SI_UNIT ( $, .RADIAN. ) );
#87 = PERSON_AND_ORGANIZATION_ROLE ( 'design_owner' ) ;
#88 = LOCAL_TIME ( 12, 21, 59.00000000000000000, #12 ) ;
#89 = ORIENTED_EDGE ( 'NONE', *, *, #156, .F. ) ;
#90 = APPROVAL_STATUS ( 'not_yet_approved' ) ;
#91 = AXIS2_PLACEMENT_3D ( 'NONE', #253, #229, #117 ) ;
#92 = ORIENTED_EDGE ( 'NONE', *, *, #145, .F. ) ;
#93 = APPROVAL ( #76, 'NEURÈENÝ' ) ;
#94 = SECURITY_CLASSIFICATION_LEVEL ( 'unclassified' ) ;
#95 = AXIS2_PLACEMENT_3D ( 'NONE', #210, #211, #193 ) ;
#96 = EDGE_CURVE ( 'NONE', #148, #255, #220, .T. ) ;
#97 = DIRECTION ( 'NONE',  ( 1.000000000000000000, 0.000000000000000000, 0.000000000000000000 ) ) ;
#98 = PERSON_AND_ORGANIZATION ( #152, #214 ) ;
#99 = DIRECTION ( 'NONE',  ( 1.000000000000000000, 0.000000000000000000, 0.000000000000000000 ) ) ;
#100 = CC_DESIGN_PERSON_AND_ORGANIZATION_ASSIGNMENT ( #151, #13, ( #244 ) ) ;
#101 = AXIS2_PLACEMENT_3D ( 'NONE', #45, #106, #63 ) ;
#102 = PLANE ( 'NONE',  #34 ) ;
#103 = CARTESIAN_POINT ( 'NONE',  ( 6.000000000000000888, 7.347880794884120722E-16, 0.000000000000000000 ) ) ;
#104 = CC_DESIGN_APPROVAL ( #213, ( #147 ) ) ;
#105 = LOCAL_TIME ( 12, 21, 59.00000000000000000, #130 ) ;
#106 = DIRECTION ( 'NONE',  ( -0.000000000000000000, -0.000000000000000000, -1.000000000000000000 ) ) ;
#107 = EDGE_LOOP ( 'NONE', ( #85, #226 ) ) ;
#108 = PRODUCT_DEFINITION ( 'NEZNÁMÝ', '', #147, #124 ) ;
#109 = EDGE_LOOP ( 'NONE', ( #231, #143 ) ) ;
#110 = ORIENTED_EDGE ( 'NONE', *, *, #179, .F. ) ;
#111 = LINE ( 'NONE', #59, #120 ) ;
#112 = CALENDAR_DATE ( 2023, 12, 2 ) ;
#113 = CARTESIAN_POINT ( 'NONE',  ( 6.000000000000000888, 7.347880794884120722E-16, 5.000000000000000000 ) ) ;
#114 = VECTOR ( 'NONE', #194, 1000.000000000000000 ) ;
#115 = CARTESIAN_POINT ( 'NONE',  ( 0.000000000000000000, 0.000000000000000000, 160.0000000000000000 ) ) ;
#116 = LINE ( 'NONE', #79, #114 ) ;
#117 = DIRECTION ( 'NONE',  ( -1.000000000000000000, 0.000000000000000000, 0.000000000000000000 ) ) ;
#118 = APPROVAL ( #67, 'NEURÈENÝ' ) ;
#119 =( NAMED_UNIT ( * ) SI_UNIT ( $, .STERADIAN. ) SOLID_ANGLE_UNIT ( ) );
#120 = VECTOR ( 'NONE', #132, 1000.000000000000000 ) ;
#121 = DIRECTION ( 'NONE',  ( 0.000000000000000000, 0.000000000000000000, 1.000000000000000000 ) ) ;
#122 = CARTESIAN_POINT ( 'NONE',  ( -6.000000000000000888, 0.000000000000000000, 5.000000000000000000 ) ) ;
#123 = PRODUCT_RELATED_PRODUCT_CATEGORY ( 'detail', '', ( #27 ) ) ;
#124 = DESIGN_CONTEXT ( 'detailed design', #164, 'design' ) ;
#125 = AXIS2_PLACEMENT_3D ( 'NONE', #37, #177, #4 ) ;
#126 = FACE_OUTER_BOUND ( 'NONE', #109, .T. ) ;
#127 = DATE_AND_TIME ( #206, #88 ) ;
#128 = AXIS2_PLACEMENT_3D ( 'NONE', #153, #36, #216 ) ;
#129 = APPLICATION_CONTEXT ( 'configuration controlled 3d designs of mechanical parts and assemblies' ) ;
#130 = COORDINATED_UNIVERSAL_TIME_OFFSET ( 1, 0, .AHEAD. ) ;
#131 = AXIS2_PLACEMENT_3D ( 'NONE', #43, #121, #160 ) ;
#132 = DIRECTION ( 'NONE',  ( -0.000000000000000000, -0.000000000000000000, -1.000000000000000000 ) ) ;
#133 = EDGE_CURVE ( 'NONE', #167, #57, #8, .T. ) ;
#134 = EDGE_LOOP ( 'NONE', ( #150, #165, #68, #170 ) ) ;
#135 = CARTESIAN_POINT ( 'NONE',  ( 0.000000000000000000, 0.000000000000000000, 5.000000000000000000 ) ) ;
#136 = CC_DESIGN_APPROVAL ( #93, ( #244 ) ) ;
#137 = APPROVAL_ROLE ( '' ) ;
#138 = ADVANCED_FACE ( 'NONE', ( #195 ), #173, .T. ) ;
#139 = FACE_OUTER_BOUND ( 'NONE', #209, .T. ) ;
#140 = CYLINDRICAL_SURFACE ( 'NONE', #190, 6.000000000000000888 ) ;
#141 = ADVANCED_FACE ( 'NONE', ( #247, #196 ), #77, .T. ) ;
#142 = CYLINDRICAL_SURFACE ( 'NONE', #101, 3.750000000000000000 ) ;
#143 = ORIENTED_EDGE ( 'NONE', *, *, #145, .T. ) ;
#144 = PERSON_AND_ORGANIZATION ( #152, #214 ) ;
#145 = EDGE_CURVE ( 'NONE', #240, #186, #232, .T. ) ;
#146 = CALENDAR_DATE ( 2023, 12, 2 ) ;
#147 = PRODUCT_DEFINITION_FORMATION_WITH_SPECIFIED_SOURCE ( 'LIBOVOLNÝ', '', #27, .NOT_KNOWN. ) ;
#148 = VERTEX_POINT ( 'NONE', #74 ) ;
#149 = PERSON_AND_ORGANIZATION_ROLE ( 'creator' ) ;
#150 = ORIENTED_EDGE ( 'NONE', *, *, #54, .F. ) ;
#151 = PERSON_AND_ORGANIZATION ( #152, #214 ) ;
#152 = PERSON ( 'NEURÈENÝ', 'NEURÈENÝ', 'NEURÈENÝ', ('NEURÈENÝ'), ('NEURÈENÝ'), ('NEURÈENÝ') ) ;
#153 = CARTESIAN_POINT ( 'NONE',  ( 0.000000000000000000, 0.000000000000000000, 5.000000000000000000 ) ) ;
#154 = CARTESIAN_POINT ( 'NONE',  ( -6.000000000000000888, 0.000000000000000000, 0.000000000000000000 ) ) ;
#155 = DATE_TIME_ROLE ( 'classification_date' ) ;
#156 = EDGE_CURVE ( 'NONE', #207, #23, #78, .T. ) ;
#157 = ORIENTED_EDGE ( 'NONE', *, *, #71, .F. ) ;
#158 = CARTESIAN_POINT ( 'NONE',  ( 6.000000000000000888, 7.347880794884120722E-16, 5.000000000000000000 ) ) ;
#159 = DIRECTION ( 'NONE',  ( 0.000000000000000000, 0.000000000000000000, 1.000000000000000000 ) ) ;
#160 = DIRECTION ( 'NONE',  ( 1.000000000000000000, 0.000000000000000000, 0.000000000000000000 ) ) ;
#161 = AXIS2_PLACEMENT_3D ( 'NONE', #60, #212, #97 ) ;
#162 = CARTESIAN_POINT ( 'NONE',  ( 0.000000000000000000, 0.000000000000000000, 160.0000000000000000 ) ) ;
#163 = EDGE_CURVE ( 'NONE', #186, #240, #46, .T. ) ;
#164 = APPLICATION_CONTEXT ( 'configuration controlled 3d designs of mechanical parts and assemblies' ) ;
#165 = ORIENTED_EDGE ( 'NONE', *, *, #71, .T. ) ;
#166 = CALENDAR_DATE ( 2023, 12, 2 ) ;
#167 = VERTEX_POINT ( 'NONE', #122 ) ;
#168 = PERSON_AND_ORGANIZATION ( #152, #214 ) ;
#169 = ORIENTED_EDGE ( 'NONE', *, *, #191, .T. ) ;
#170 = ORIENTED_EDGE ( 'NONE', *, *, #17, .F. ) ;
#171 = COORDINATED_UNIVERSAL_TIME_OFFSET ( 1, 0, .AHEAD. ) ;
#172 = DIRECTION ( 'NONE',  ( -0.000000000000000000, -0.000000000000000000, -1.000000000000000000 ) ) ;
#173 = CYLINDRICAL_SURFACE ( 'NONE', #91, 6.000000000000000888 ) ;
#174 = CARTESIAN_POINT ( 'NONE',  ( 0.000000000000000000, 0.000000000000000000, 5.000000000000000000 ) ) ;
#175 = CIRCLE ( 'NONE', #30, 6.000000000000000888 ) ;
#176 = UNCERTAINTY_MEASURE_WITH_UNIT (LENGTH_MEASURE( 1.000000000000000082E-05 ), #65, 'distance_accuracy_value', 'NONE');
#177 = DIRECTION ( 'NONE',  ( 0.000000000000000000, 0.000000000000000000, 1.000000000000000000 ) ) ;
#178 = CIRCLE ( 'NONE', #26, 3.750000000000000000 ) ;
#179 = EDGE_CURVE ( 'NONE', #23, #207, #82, .T. ) ;
#180 = CARTESIAN_POINT ( 'NONE',  ( -3.750000000000000000, 0.000000000000000000, 160.0000000000000000 ) ) ;
#181 = ORIENTED_EDGE ( 'NONE', *, *, #96, .F. ) ;
#182 = APPROVAL_PERSON_ORGANIZATION ( #144, #213, #31 ) ;
#183 = DIRECTION ( 'NONE',  ( -0.000000000000000000, -0.000000000000000000, -1.000000000000000000 ) ) ;
#184 = ADVANCED_FACE ( 'NONE', ( #199 ), #102, .F. ) ;
#185 = ORIENTED_EDGE ( 'NONE', *, *, #230, .F. ) ;
#186 = VERTEX_POINT ( 'NONE', #25 ) ;
#187 = CC_DESIGN_PERSON_AND_ORGANIZATION_ASSIGNMENT ( #168, #87, ( #27 ) ) ;
#188 = ORIENTED_EDGE ( 'NONE', *, *, #96, .T. ) ;
#189 = PERSON_AND_ORGANIZATION ( #152, #214 ) ;
#190 = AXIS2_PLACEMENT_3D ( 'NONE', #20, #183, #239 ) ;
#191 = EDGE_CURVE ( 'NONE', #255, #148, #178, .T. ) ;
#192 = PERSON_AND_ORGANIZATION_ROLE ( 'design_supplier' ) ;
#193 = DIRECTION ( 'NONE',  ( 1.000000000000000000, 0.000000000000000000, 0.000000000000000000 ) ) ;
#194 = DIRECTION ( 'NONE',  ( -0.000000000000000000, -0.000000000000000000, -1.000000000000000000 ) ) ;
#195 = FACE_OUTER_BOUND ( 'NONE', #3, .T. ) ;
#196 = FACE_OUTER_BOUND ( 'NONE', #107, .T. ) ;
#197 = CLOSED_SHELL ( 'NONE', ( #234, #243, #138, #141, #184, #7, #202 ) ) ;
#198 = DIRECTION ( 'NONE',  ( 0.000000000000000000, 0.000000000000000000, 1.000000000000000000 ) ) ;
#199 = FACE_OUTER_BOUND ( 'NONE', #245, .T. ) ;
#200 = VECTOR ( 'NONE', #172, 1000.000000000000000 ) ;
#201 = DIRECTION ( 'NONE',  ( 1.000000000000000000, 0.000000000000000000, 0.000000000000000000 ) ) ;
#202 = ADVANCED_FACE ( 'NONE', ( #126 ), #5, .T. ) ;
#203 = AXIS2_PLACEMENT_3D ( 'NONE', #83, #198, #218 ) ;
#204 = APPROVAL_PERSON_ORGANIZATION ( #98, #93, #137 ) ;
#205 = CARTESIAN_POINT ( 'NONE',  ( 3.750000000000000000, 4.592425496802573972E-16, 160.0000000000000000 ) ) ;
#206 = CALENDAR_DATE ( 2023, 12, 2 ) ;
#207 = VERTEX_POINT ( 'NONE', #103 ) ;
#208 = AXIS2_PLACEMENT_3D ( 'NONE', #174, #55, #41 ) ;
#209 = EDGE_LOOP ( 'NONE', ( #237, #72, #51, #188 ) ) ;
#210 = CARTESIAN_POINT ( 'NONE',  ( 0.000000000000000000, 0.000000000000000000, 5.000000000000000000 ) ) ;
#211 = DIRECTION ( 'NONE',  ( 0.000000000000000000, 0.000000000000000000, 1.000000000000000000 ) ) ;
#212 = DIRECTION ( 'NONE',  ( 0.000000000000000000, 0.000000000000000000, 1.000000000000000000 ) ) ;
#213 = APPROVAL ( #90, 'NEURÈENÝ' ) ;
#214 = ORGANIZATION ( 'NEURÈENÝ', 'NEURÈENÝ', '' ) ;
#215 = PERSON_AND_ORGANIZATION ( #152, #214 ) ;
#216 = DIRECTION ( 'NONE',  ( 1.000000000000000000, 0.000000000000000000, -0.000000000000000000 ) ) ;
#217 = PRODUCT_DEFINITION_SHAPE ( 'NONE', 'NONE',  #108 ) ;
#218 = DIRECTION ( 'NONE',  ( 1.000000000000000000, 0.000000000000000000, 0.000000000000000000 ) ) ;
#219 = DIRECTION ( 'NONE',  ( 0.000000000000000000, 0.000000000000000000, 1.000000000000000000 ) ) ;
#220 = CIRCLE ( 'NONE', #208, 3.750000000000000000 ) ;
#221 = DIRECTION ( 'NONE',  ( 1.000000000000000000, 0.000000000000000000, -0.000000000000000000 ) ) ;
#222 = APPLICATION_PROTOCOL_DEFINITION ( 'international standard', 'config_control_design', 1994, #164 ) ;
#223 = EDGE_LOOP ( 'NONE', ( #92, #21, #169, #185 ) ) ;
#224 = CC_DESIGN_DATE_AND_TIME_ASSIGNMENT ( #246, #155, ( #244 ) ) ;
#225 = COORDINATED_UNIVERSAL_TIME_OFFSET ( 1, 0, .AHEAD. ) ;
#226 = ORIENTED_EDGE ( 'NONE', *, *, #54, .T. ) ;
#227 = PERSON_AND_ORGANIZATION_ROLE ( 'creator' ) ;
#228 = CC_DESIGN_SECURITY_CLASSIFICATION ( #244, ( #147 ) ) ;
#229 = DIRECTION ( 'NONE',  ( -0.000000000000000000, -0.000000000000000000, -1.000000000000000000 ) ) ;
#230 = EDGE_CURVE ( 'NONE', #186, #148, #62, .T. ) ;
#231 = ORIENTED_EDGE ( 'NONE', *, *, #163, .T. ) ;
#232 = CIRCLE ( 'NONE', #161, 3.750000000000000000 ) ;
#233 = LINE ( 'NONE', #158, #200 ) ;
#234 = ADVANCED_FACE ( 'NONE', ( #47 ), #142, .T. ) ;
#235 = DIRECTION ( 'NONE',  ( -0.000000000000000000, -0.000000000000000000, -1.000000000000000000 ) ) ;
#236 = APPLICATION_PROTOCOL_DEFINITION ( 'international standard', 'config_control_design', 1994, #129 ) ;
#237 = ORIENTED_EDGE ( 'NONE', *, *, #50, .F. ) ;
#238 = DIRECTION ( 'NONE',  ( 0.000000000000000000, 0.000000000000000000, 1.000000000000000000 ) ) ;
#239 = DIRECTION ( 'NONE',  ( -1.000000000000000000, 0.000000000000000000, 0.000000000000000000 ) ) ;
#240 = VERTEX_POINT ( 'NONE', #205 ) ;
#241 = DATE_AND_TIME ( #166, #105 ) ;
#242 = APPROVAL_DATE_TIME ( #127, #118 ) ;
#243 = ADVANCED_FACE ( 'NONE', ( #61 ), #140, .T. ) ;
#244 = SECURITY_CLASSIFICATION ( '', '', #94 ) ;
#245 = EDGE_LOOP ( 'NONE', ( #110, #89 ) ) ;
#246 = DATE_AND_TIME ( #249, #11 ) ;
#247 = FACE_BOUND ( 'NONE', #69, .T. ) ;
#248 = AXIS2_PLACEMENT_3D ( 'NONE', #115, #40, #75 ) ;
#249 = CALENDAR_DATE ( 2023, 12, 2 ) ;
#250 = AXIS2_PLACEMENT_3D ( 'NONE', #22, #159, #201 ) ;
#251 = LOCAL_TIME ( 12, 21, 59.00000000000000000, #56 ) ;
#252 = APPROVAL_DATE_TIME ( #241, #213 ) ;
#253 = CARTESIAN_POINT ( 'NONE',  ( 0.000000000000000000, 0.000000000000000000, 5.000000000000000000 ) ) ;
#254 = CYLINDRICAL_SURFACE ( 'NONE', #248, 3.750000000000000000 ) ;
#255 = VERTEX_POINT ( 'NONE', #84 ) ;
ENDSEC;
END-ISO-10303-21;
