ISO-10303-21;
HEADER;
FILE_DESCRIPTION (( 'STEP AP203' ),
    '1' );
FILE_NAME ('c8fe.STEP',
    '2023-02-12T12:02:46',
    ( '' ),
    ( '' ),
    'SwSTEP 2.0',
    'SolidWorks 2019',
    '' );
FILE_SCHEMA (( 'CONFIG_CONTROL_DESIGN' ));
ENDSEC;

DATA;
#1 = DIRECTION ( 'NONE',  ( 1.000000000000000000, 0.000000000000000000, -0.000000000000000000 ) ) ;
#2 = DIRECTION ( 'NONE',  ( 1.000000000000000000, 0.000000000000000000, -0.000000000000000000 ) ) ;
#3 = PRODUCT ( 'c8fe', 'c8fe', '', ( #139 ) ) ;
#4 = AXIS2_PLACEMENT_3D ( 'NONE', #60, #173, #58 ) ;
#5 = DIRECTION ( 'NONE',  ( 1.000000000000000000, 0.000000000000000000, 0.000000000000000000 ) ) ;
#6 = ORGANIZATION ( 'NEURÈENÝ', 'NEURÈENÝ', '' ) ;
#7 = CARTESIAN_POINT ( 'NONE',  ( 0.000000000000000000, 0.000000000000000000, 0.000000000000000000 ) ) ;
#8 = COORDINATED_UNIVERSAL_TIME_OFFSET ( 1, 0, .AHEAD. ) ;
#9 = DATE_AND_TIME ( #109, #207 ) ;
#10 = PERSON_AND_ORGANIZATION ( #28, #6 ) ;
#11 = ORIENTED_EDGE ( 'NONE', *, *, #152, .T. ) ;
#12 = APPROVAL_STATUS ( 'not_yet_approved' ) ;
#13 = CC_DESIGN_DATE_AND_TIME_ASSIGNMENT ( #30, #108, ( #110 ) ) ;
#14 = APPROVAL_ROLE ( '' ) ;
#15 = ORIENTED_EDGE ( 'NONE', *, *, #232, .F. ) ;
#16 = PRODUCT_RELATED_PRODUCT_CATEGORY ( 'detail', '', ( #3 ) ) ;
#17 = CARTESIAN_POINT ( 'NONE',  ( 0.000000000000000000, 0.000000000000000000, 160.0000000000000000 ) ) ;
#18 = DIRECTION ( 'NONE',  ( -0.000000000000000000, -0.000000000000000000, -1.000000000000000000 ) ) ;
#19 = ORIENTED_EDGE ( 'NONE', *, *, #238, .F. ) ;
#20 = EDGE_LOOP ( 'NONE', ( #190, #185, #128, #34 ) ) ;
#21 = DIRECTION ( 'NONE',  ( -0.000000000000000000, -0.000000000000000000, -1.000000000000000000 ) ) ;
#22 = DESIGN_CONTEXT ( 'detailed design', #203, 'design' ) ;
#23 = CC_DESIGN_SECURITY_CLASSIFICATION ( #243, ( #141 ) ) ;
#24 = DIRECTION ( 'NONE',  ( 0.000000000000000000, 0.000000000000000000, 1.000000000000000000 ) ) ;
#25 = CC_DESIGN_DATE_AND_TIME_ASSIGNMENT ( #104, #246, ( #243 ) ) ;
#26 = CIRCLE ( 'NONE', #80, 2.000000000000000000 ) ;
#27 = LOCAL_TIME ( 13, 2, 46.00000000000000000, #8 ) ;
#28 = PERSON ( 'NEURÈENÝ', 'NEURÈENÝ', 'NEURÈENÝ', ('NEURÈENÝ'), ('NEURÈENÝ'), ('NEURÈENÝ') ) ;
#29 = CARTESIAN_POINT ( 'NONE',  ( 4.000000000000000000, 4.898587196589412829E-16, 3.000000000000000000 ) ) ;
#30 = DATE_AND_TIME ( #70, #255 ) ;
#31 = VERTEX_POINT ( 'NONE', #118 ) ;
#32 = APPROVAL_STATUS ( 'not_yet_approved' ) ;
#33 = APPLICATION_PROTOCOL_DEFINITION ( 'international standard', 'config_control_design', 1994, #203 ) ;
#34 = ORIENTED_EDGE ( 'NONE', *, *, #152, .F. ) ;
#35 = PERSON_AND_ORGANIZATION_ROLE ( 'creator' ) ;
#36 = ORIENTED_EDGE ( 'NONE', *, *, #189, .T. ) ;
#37 = VERTEX_POINT ( 'NONE', #78 ) ;
#38 = CYLINDRICAL_SURFACE ( 'NONE', #4, 4.000000000000000000 ) ;
#39 = DIRECTION ( 'NONE',  ( 1.000000000000000000, 0.000000000000000000, -0.000000000000000000 ) ) ;
#40 = EDGE_CURVE ( 'NONE', #31, #250, #96, .T. ) ;
#41 = DIRECTION ( 'NONE',  ( 1.000000000000000000, 0.000000000000000000, 0.000000000000000000 ) ) ;
#42 = CARTESIAN_POINT ( 'NONE',  ( -4.000000000000000000, 0.000000000000000000, 3.000000000000000000 ) ) ;
#43 = CIRCLE ( 'NONE', #169, 4.000000000000000000 ) ;
#44 = PLANE ( 'NONE',  #171 ) ;
#45 = EDGE_CURVE ( 'NONE', #250, #231, #86, .T. ) ;
#46 = COORDINATED_UNIVERSAL_TIME_OFFSET ( 1, 0, .AHEAD. ) ;
#47 = SHAPE_DEFINITION_REPRESENTATION ( #106, #134 ) ;
#48 = APPROVAL_DATE_TIME ( #9, #91 ) ;
#49 = VERTEX_POINT ( 'NONE', #92 ) ;
#50 = VECTOR ( 'NONE', #21, 1000.000000000000000 ) ;
#51 = APPROVAL_DATE_TIME ( #224, #115 ) ;
#52 = ORIENTED_EDGE ( 'NONE', *, *, #214, .F. ) ;
#53 = ORIENTED_EDGE ( 'NONE', *, *, #245, .F. ) ;
#54 = DIRECTION ( 'NONE',  ( -0.000000000000000000, -0.000000000000000000, -1.000000000000000000 ) ) ;
#55 = DIRECTION ( 'NONE',  ( 0.000000000000000000, 0.000000000000000000, 1.000000000000000000 ) ) ;
#56 = CARTESIAN_POINT ( 'NONE',  ( -2.000000000000000000, 0.000000000000000000, 160.0000000000000000 ) ) ;
#57 = ADVANCED_FACE ( 'NONE', ( #150 ), #38, .T. ) ;
#58 = DIRECTION ( 'NONE',  ( -1.000000000000000000, 0.000000000000000000, 0.000000000000000000 ) ) ;
#59 = AXIS2_PLACEMENT_3D ( 'NONE', #235, #18, #170 ) ;
#60 = CARTESIAN_POINT ( 'NONE',  ( 0.000000000000000000, 0.000000000000000000, 3.000000000000000000 ) ) ;
#61 =( NAMED_UNIT ( * ) PLANE_ANGLE_UNIT ( ) SI_UNIT ( $, .RADIAN. ) );
#62 = VECTOR ( 'NONE', #177, 1000.000000000000000 ) ;
#63 = DIRECTION ( 'NONE',  ( 0.000000000000000000, 0.000000000000000000, 1.000000000000000000 ) ) ;
#64 =( NAMED_UNIT ( * ) SI_UNIT ( $, .STERADIAN. ) SOLID_ANGLE_UNIT ( ) );
#65 = DIRECTION ( 'NONE',  ( 0.000000000000000000, 0.000000000000000000, 1.000000000000000000 ) ) ;
#66 = EDGE_CURVE ( 'NONE', #231, #250, #26, .T. ) ;
#67 = PERSON_AND_ORGANIZATION_ROLE ( 'design_supplier' ) ;
#68 = CIRCLE ( 'NONE', #206, 4.000000000000000000 ) ;
#69 = AXIS2_PLACEMENT_3D ( 'NONE', #7, #85, #160 ) ;
#70 = CALENDAR_DATE ( 2023, 12, 2 ) ;
#71 = CC_DESIGN_PERSON_AND_ORGANIZATION_ASSIGNMENT ( #126, #142, ( #243 ) ) ;
#72 = COORDINATED_UNIVERSAL_TIME_OFFSET ( 1, 0, .AHEAD. ) ;
#73 = EDGE_LOOP ( 'NONE', ( #127, #186 ) ) ;
#74 = ADVANCED_FACE ( 'NONE', ( #248, #116 ), #205, .T. ) ;
#75 = CARTESIAN_POINT ( 'NONE',  ( 0.000000000000000000, 0.000000000000000000, 3.000000000000000000 ) ) ;
#76 = ORIENTED_EDGE ( 'NONE', *, *, #40, .F. ) ;
#77 = ADVANCED_FACE ( 'NONE', ( #252 ), #228, .T. ) ;
#78 = CARTESIAN_POINT ( 'NONE',  ( -4.000000000000000000, 0.000000000000000000, 3.000000000000000000 ) ) ;
#79 = CYLINDRICAL_SURFACE ( 'NONE', #204, 4.000000000000000000 ) ;
#80 = AXIS2_PLACEMENT_3D ( 'NONE', #75, #55, #154 ) ;
#81 = CIRCLE ( 'NONE', #220, 2.000000000000000000 ) ;
#82 = CARTESIAN_POINT ( 'NONE',  ( 2.000000000000000000, 2.449293598294706414E-16, 3.000000000000000000 ) ) ;
#83 = CARTESIAN_POINT ( 'NONE',  ( 4.000000000000000000, 4.898587196589412829E-16, 3.000000000000000000 ) ) ;
#84 = DIRECTION ( 'NONE',  ( 1.000000000000000000, 0.000000000000000000, 0.000000000000000000 ) ) ;
#85 = DIRECTION ( 'NONE',  ( 0.000000000000000000, 0.000000000000000000, 1.000000000000000000 ) ) ;
#86 = CIRCLE ( 'NONE', #229, 2.000000000000000000 ) ;
#87 = LOCAL_TIME ( 13, 2, 46.00000000000000000, #227 ) ;
#88 = APPROVAL_DATE_TIME ( #222, #137 ) ;
#89 = COORDINATED_UNIVERSAL_TIME_OFFSET ( 1, 0, .AHEAD. ) ;
#90 = LOCAL_TIME ( 13, 2, 46.00000000000000000, #46 ) ;
#91 = APPROVAL ( #32, 'NEURÈENÝ' ) ;
#92 = CARTESIAN_POINT ( 'NONE',  ( 4.000000000000000000, 4.898587196589412829E-16, 0.000000000000000000 ) ) ;
#93 = DIRECTION ( 'NONE',  ( -0.000000000000000000, -0.000000000000000000, -1.000000000000000000 ) ) ;
#94 = AXIS2_PLACEMENT_3D ( 'NONE', #102, #99, #179 ) ;
#95 = EDGE_LOOP ( 'NONE', ( #162, #53, #117, #144 ) ) ;
#96 = LINE ( 'NONE', #56, #184 ) ;
#97 = CARTESIAN_POINT ( 'NONE',  ( 0.000000000000000000, 0.000000000000000000, 3.000000000000000000 ) ) ;
#98 = CIRCLE ( 'NONE', #242, 2.000000000000000000 ) ;
#99 = DIRECTION ( 'NONE',  ( 0.000000000000000000, 0.000000000000000000, 1.000000000000000000 ) ) ;
#100 = CC_DESIGN_APPROVAL ( #115, ( #110 ) ) ;
#101 = CARTESIAN_POINT ( 'NONE',  ( 0.000000000000000000, 0.000000000000000000, 0.000000000000000000 ) ) ;
#102 = CARTESIAN_POINT ( 'NONE',  ( 0.000000000000000000, 0.000000000000000000, 3.000000000000000000 ) ) ;
#103 = FACE_OUTER_BOUND ( 'NONE', #73, .T. ) ;
#104 = DATE_AND_TIME ( #165, #27 ) ;
#105 = EDGE_LOOP ( 'NONE', ( #52, #36, #253, #76 ) ) ;
#106 = PRODUCT_DEFINITION_SHAPE ( 'NONE', 'NONE',  #110 ) ;
#107 = APPROVAL_PERSON_ORGANIZATION ( #143, #115, #161 ) ;
#108 = DATE_TIME_ROLE ( 'creation_date' ) ;
#109 = CALENDAR_DATE ( 2023, 12, 2 ) ;
#110 = PRODUCT_DEFINITION ( 'NEZNÁMÝ', '', #141, #22 ) ;
#111 = SECURITY_CLASSIFICATION_LEVEL ( 'unclassified' ) ;
#112 = EDGE_LOOP ( 'NONE', ( #19, #15 ) ) ;
#113 = ORIENTED_EDGE ( 'NONE', *, *, #145, .F. ) ;
#114 = DIRECTION ( 'NONE',  ( -1.000000000000000000, 0.000000000000000000, 0.000000000000000000 ) ) ;
#115 = APPROVAL ( #12, 'NEURÈENÝ' ) ;
#116 = FACE_OUTER_BOUND ( 'NONE', #135, .T. ) ;
#117 = ORIENTED_EDGE ( 'NONE', *, *, #40, .T. ) ;
#118 = CARTESIAN_POINT ( 'NONE',  ( -2.000000000000000000, 0.000000000000000000, 160.0000000000000000 ) ) ;
#119 = ADVANCED_FACE ( 'NONE', ( #151 ), #79, .T. ) ;
#120 = DIRECTION ( 'NONE',  ( 0.000000000000000000, 0.000000000000000000, 1.000000000000000000 ) ) ;
#121 = CARTESIAN_POINT ( 'NONE',  ( 0.000000000000000000, 0.000000000000000000, 0.000000000000000000 ) ) ;
#122 = LINE ( 'NONE', #123, #50 ) ;
#123 = CARTESIAN_POINT ( 'NONE',  ( 2.000000000000000000, 2.449293598294706414E-16, 160.0000000000000000 ) ) ;
#124 = PERSON_AND_ORGANIZATION ( #28, #6 ) ;
#125 = ADVANCED_FACE ( 'NONE', ( #251 ), #187, .T. ) ;
#126 = PERSON_AND_ORGANIZATION ( #28, #6 ) ;
#127 = ORIENTED_EDGE ( 'NONE', *, *, #245, .T. ) ;
#128 = ORIENTED_EDGE ( 'NONE', *, *, #232, .T. ) ;
#129 = CC_DESIGN_APPROVAL ( #137, ( #243 ) ) ;
#130 = CARTESIAN_POINT ( 'NONE',  ( 0.000000000000000000, 0.000000000000000000, 3.000000000000000000 ) ) ;
#131 = CC_DESIGN_PERSON_AND_ORGANIZATION_ASSIGNMENT ( #124, #201, ( #110 ) ) ;
#132 = CARTESIAN_POINT ( 'NONE',  ( 0.000000000000000000, 0.000000000000000000, 3.000000000000000000 ) ) ;
#133 = DIRECTION ( 'NONE',  ( -1.000000000000000000, 0.000000000000000000, 0.000000000000000000 ) ) ;
#134 = ADVANCED_BREP_SHAPE_REPRESENTATION ( 'c8fe', ( #192, #69 ), #216 ) ;
#135 = EDGE_LOOP ( 'NONE', ( #230, #168 ) ) ;
#136 = CIRCLE ( 'NONE', #94, 4.000000000000000000 ) ;
#137 = APPROVAL ( #146, 'NEURÈENÝ' ) ;
#138 = CARTESIAN_POINT ( 'NONE',  ( 0.000000000000000000, 0.000000000000000000, 160.0000000000000000 ) ) ;
#139 = MECHANICAL_CONTEXT ( 'NONE', #180, 'mechanical' ) ;
#140 = PERSON_AND_ORGANIZATION ( #28, #6 ) ;
#141 = PRODUCT_DEFINITION_FORMATION_WITH_SPECIFIED_SOURCE ( 'LIBOVOLNÝ', '', #3, .NOT_KNOWN. ) ;
#142 = PERSON_AND_ORGANIZATION_ROLE ( 'classification_officer' ) ;
#143 = PERSON_AND_ORGANIZATION ( #28, #6 ) ;
#144 = ORIENTED_EDGE ( 'NONE', *, *, #45, .T. ) ;
#145 = EDGE_CURVE ( 'NONE', #37, #210, #43, .T. ) ;
#146 = APPROVAL_STATUS ( 'not_yet_approved' ) ;
#147 = EDGE_LOOP ( 'NONE', ( #174, #113, #11, #164 ) ) ;
#148 = PERSON_AND_ORGANIZATION ( #28, #6 ) ;
#149 = ORIENTED_EDGE ( 'NONE', *, *, #45, .F. ) ;
#150 = FACE_OUTER_BOUND ( 'NONE', #147, .T. ) ;
#151 = FACE_OUTER_BOUND ( 'NONE', #20, .T. ) ;
#152 = EDGE_CURVE ( 'NONE', #37, #225, #191, .T. ) ;
#153 = ORIENTED_EDGE ( 'NONE', *, *, #66, .F. ) ;
#154 = DIRECTION ( 'NONE',  ( 1.000000000000000000, 0.000000000000000000, 0.000000000000000000 ) ) ;
#155 = CARTESIAN_POINT ( 'NONE',  ( 0.000000000000000000, 0.000000000000000000, 3.000000000000000000 ) ) ;
#156 = APPROVAL_PERSON_ORGANIZATION ( #140, #137, #14 ) ;
#157 = DIRECTION ( 'NONE',  ( 1.000000000000000000, 0.000000000000000000, 0.000000000000000000 ) ) ;
#158 = CARTESIAN_POINT ( 'NONE',  ( 0.000000000000000000, 0.000000000000000000, 0.000000000000000000 ) ) ;
#159 = DIRECTION ( 'NONE',  ( 1.000000000000000000, 0.000000000000000000, 0.000000000000000000 ) ) ;
#160 = DIRECTION ( 'NONE',  ( 1.000000000000000000, 0.000000000000000000, 0.000000000000000000 ) ) ;
#161 = APPROVAL_ROLE ( '' ) ;
#162 = ORIENTED_EDGE ( 'NONE', *, *, #189, .F. ) ;
#163 = CC_DESIGN_APPROVAL ( #91, ( #141 ) ) ;
#164 = ORIENTED_EDGE ( 'NONE', *, *, #238, .T. ) ;
#165 = CALENDAR_DATE ( 2023, 12, 2 ) ;
#166 = AXIS2_PLACEMENT_3D ( 'NONE', #97, #188, #39 ) ;
#167 = EDGE_CURVE ( 'NONE', #210, #49, #213, .T. ) ;
#168 = ORIENTED_EDGE ( 'NONE', *, *, #223, .T. ) ;
#169 = AXIS2_PLACEMENT_3D ( 'NONE', #155, #212, #41 ) ;
#170 = DIRECTION ( 'NONE',  ( -1.000000000000000000, 0.000000000000000000, 0.000000000000000000 ) ) ;
#171 = AXIS2_PLACEMENT_3D ( 'NONE', #158, #237, #1 ) ;
#172 = VERTEX_POINT ( 'NONE', #219 ) ;
#173 = DIRECTION ( 'NONE',  ( -0.000000000000000000, -0.000000000000000000, -1.000000000000000000 ) ) ;
#174 = ORIENTED_EDGE ( 'NONE', *, *, #167, .F. ) ;
#175 = AXIS2_PLACEMENT_3D ( 'NONE', #121, #65, #5 ) ;
#176 = PLANE ( 'NONE',  #234 ) ;
#177 = DIRECTION ( 'NONE',  ( -0.000000000000000000, -0.000000000000000000, -1.000000000000000000 ) ) ;
#178 = ADVANCED_FACE ( 'NONE', ( #103 ), #176, .T. ) ;
#179 = DIRECTION ( 'NONE',  ( 1.000000000000000000, 0.000000000000000000, 0.000000000000000000 ) ) ;
#180 = APPLICATION_CONTEXT ( 'configuration controlled 3d designs of mechanical parts and assemblies' ) ;
#181 = CARTESIAN_POINT ( 'NONE',  ( -4.000000000000000000, 0.000000000000000000, 0.000000000000000000 ) ) ;
#182 = CALENDAR_DATE ( 2023, 12, 2 ) ;
#183 = CC_DESIGN_PERSON_AND_ORGANIZATION_ASSIGNMENT ( #148, #67, ( #141 ) ) ;
#184 = VECTOR ( 'NONE', #233, 1000.000000000000000 ) ;
#185 = ORIENTED_EDGE ( 'NONE', *, *, #167, .T. ) ;
#186 = ORIENTED_EDGE ( 'NONE', *, *, #214, .T. ) ;
#187 = CYLINDRICAL_SURFACE ( 'NONE', #249, 2.000000000000000000 ) ;
#188 = DIRECTION ( 'NONE',  ( 0.000000000000000000, 0.000000000000000000, 1.000000000000000000 ) ) ;
#189 = EDGE_CURVE ( 'NONE', #172, #231, #122, .T. ) ;
#190 = ORIENTED_EDGE ( 'NONE', *, *, #223, .F. ) ;
#191 = LINE ( 'NONE', #42, #200 ) ;
#192 = MANIFOLD_SOLID_BREP ( 'Pøidat vysunutím3', #226 ) ;
#193 = DIRECTION ( 'NONE',  ( 0.000000000000000000, 0.000000000000000000, 1.000000000000000000 ) ) ;
#194 = CC_DESIGN_PERSON_AND_ORGANIZATION_ASSIGNMENT ( #10, #221, ( #3 ) ) ;
#195 =( LENGTH_UNIT ( ) NAMED_UNIT ( * ) SI_UNIT ( .MILLI., .METRE. ) );
#196 = CARTESIAN_POINT ( 'NONE',  ( -2.000000000000000000, 0.000000000000000000, 3.000000000000000000 ) ) ;
#197 = DIRECTION ( 'NONE',  ( -0.000000000000000000, -0.000000000000000000, -1.000000000000000000 ) ) ;
#198 = PERSON_AND_ORGANIZATION ( #28, #6 ) ;
#199 = APPROVAL_ROLE ( '' ) ;
#200 = VECTOR ( 'NONE', #197, 1000.000000000000000 ) ;
#201 = PERSON_AND_ORGANIZATION_ROLE ( 'creator' ) ;
#202 = EDGE_LOOP ( 'NONE', ( #149, #153 ) ) ;
#203 = APPLICATION_CONTEXT ( 'configuration controlled 3d designs of mechanical parts and assemblies' ) ;
#204 = AXIS2_PLACEMENT_3D ( 'NONE', #130, #54, #114 ) ;
#205 = PLANE ( 'NONE',  #166 ) ;
#206 = AXIS2_PLACEMENT_3D ( 'NONE', #101, #24, #84 ) ;
#207 = LOCAL_TIME ( 13, 2, 46.00000000000000000, #89 ) ;
#208 = DIRECTION ( 'NONE',  ( 1.000000000000000000, 0.000000000000000000, 0.000000000000000000 ) ) ;
#209 = DIRECTION ( 'NONE',  ( 0.000000000000000000, 0.000000000000000000, 1.000000000000000000 ) ) ;
#210 = VERTEX_POINT ( 'NONE', #29 ) ;
#211 = APPROVAL_PERSON_ORGANIZATION ( #198, #91, #199 ) ;
#212 = DIRECTION ( 'NONE',  ( 0.000000000000000000, 0.000000000000000000, 1.000000000000000000 ) ) ;
#213 = LINE ( 'NONE', #83, #62 ) ;
#214 = EDGE_CURVE ( 'NONE', #172, #31, #81, .T. ) ;
#215 = CARTESIAN_POINT ( 'NONE',  ( 0.000000000000000000, 0.000000000000000000, 160.0000000000000000 ) ) ;
#216 =( GEOMETRIC_REPRESENTATION_CONTEXT ( 3 ) GLOBAL_UNCERTAINTY_ASSIGNED_CONTEXT ( ( #236 ) ) GLOBAL_UNIT_ASSIGNED_CONTEXT ( ( #195, #61, #64 ) ) REPRESENTATION_CONTEXT ( 'NONE', 'WORKASPACE' ) );
#217 = CARTESIAN_POINT ( 'NONE',  ( 0.000000000000000000, 0.000000000000000000, 160.0000000000000000 ) ) ;
#218 = CC_DESIGN_PERSON_AND_ORGANIZATION_ASSIGNMENT ( #244, #35, ( #141 ) ) ;
#219 = CARTESIAN_POINT ( 'NONE',  ( 2.000000000000000000, 2.449293598294706414E-16, 160.0000000000000000 ) ) ;
#220 = AXIS2_PLACEMENT_3D ( 'NONE', #215, #120, #159 ) ;
#221 = PERSON_AND_ORGANIZATION_ROLE ( 'design_owner' ) ;
#222 = DATE_AND_TIME ( #241, #87 ) ;
#223 = EDGE_CURVE ( 'NONE', #210, #37, #136, .T. ) ;
#224 = DATE_AND_TIME ( #182, #90 ) ;
#225 = VERTEX_POINT ( 'NONE', #181 ) ;
#226 = CLOSED_SHELL ( 'NONE', ( #125, #119, #57, #74, #247, #77, #178 ) ) ;
#227 = COORDINATED_UNIVERSAL_TIME_OFFSET ( 1, 0, .AHEAD. ) ;
#228 = CYLINDRICAL_SURFACE ( 'NONE', #59, 2.000000000000000000 ) ;
#229 = AXIS2_PLACEMENT_3D ( 'NONE', #132, #209, #208 ) ;
#230 = ORIENTED_EDGE ( 'NONE', *, *, #145, .T. ) ;
#231 = VERTEX_POINT ( 'NONE', #82 ) ;
#232 = EDGE_CURVE ( 'NONE', #49, #225, #254, .T. ) ;
#233 = DIRECTION ( 'NONE',  ( -0.000000000000000000, -0.000000000000000000, -1.000000000000000000 ) ) ;
#234 = AXIS2_PLACEMENT_3D ( 'NONE', #217, #63, #2 ) ;
#235 = CARTESIAN_POINT ( 'NONE',  ( 0.000000000000000000, 0.000000000000000000, 160.0000000000000000 ) ) ;
#236 = UNCERTAINTY_MEASURE_WITH_UNIT (LENGTH_MEASURE( 1.000000000000000082E-05 ), #195, 'distance_accuracy_value', 'NONE');
#237 = DIRECTION ( 'NONE',  ( 0.000000000000000000, 0.000000000000000000, 1.000000000000000000 ) ) ;
#238 = EDGE_CURVE ( 'NONE', #225, #49, #68, .T. ) ;
#239 = FACE_OUTER_BOUND ( 'NONE', #112, .T. ) ;
#240 = APPLICATION_PROTOCOL_DEFINITION ( 'international standard', 'config_control_design', 1994, #180 ) ;
#241 = CALENDAR_DATE ( 2023, 12, 2 ) ;
#242 = AXIS2_PLACEMENT_3D ( 'NONE', #138, #193, #157 ) ;
#243 = SECURITY_CLASSIFICATION ( '', '', #111 ) ;
#244 = PERSON_AND_ORGANIZATION ( #28, #6 ) ;
#245 = EDGE_CURVE ( 'NONE', #31, #172, #98, .T. ) ;
#246 = DATE_TIME_ROLE ( 'classification_date' ) ;
#247 = ADVANCED_FACE ( 'NONE', ( #239 ), #44, .F. ) ;
#248 = FACE_BOUND ( 'NONE', #202, .T. ) ;
#249 = AXIS2_PLACEMENT_3D ( 'NONE', #17, #93, #133 ) ;
#250 = VERTEX_POINT ( 'NONE', #196 ) ;
#251 = FACE_OUTER_BOUND ( 'NONE', #105, .T. ) ;
#252 = FACE_OUTER_BOUND ( 'NONE', #95, .T. ) ;
#253 = ORIENTED_EDGE ( 'NONE', *, *, #66, .T. ) ;
#254 = CIRCLE ( 'NONE', #175, 4.000000000000000000 ) ;
#255 = LOCAL_TIME ( 13, 2, 46.00000000000000000, #72 ) ;
ENDSEC;
END-ISO-10303-21;
