ISO-10303-21;
HEADER;
FILE_DESCRIPTION (( 'STEP AP203' ),
    '1' );
FILE_NAME ('9c5d.STEP',
    '2023-02-12T11:41:27',
    ( '' ),
    ( '' ),
    'SwSTEP 2.0',
    'SolidWorks 2019',
    '' );
FILE_SCHEMA (( 'CONFIG_CONTROL_DESIGN' ));
ENDSEC;

DATA;
#1 = DIRECTION ( 'NONE',  ( 0.000000000000000000, 0.000000000000000000, 1.000000000000000000 ) ) ;
#2 = FACE_OUTER_BOUND ( 'NONE', #105, .T. ) ;
#3 = DIRECTION ( 'NONE',  ( 1.000000000000000000, 0.000000000000000000, 0.000000000000000000 ) ) ;
#4 = EDGE_CURVE ( 'NONE', #192, #169, #238, .T. ) ;
#5 = DIRECTION ( 'NONE',  ( 1.000000000000000000, 0.000000000000000000, -0.000000000000000000 ) ) ;
#6 = PRODUCT ( '9c5d', '9c5d', '', ( #164 ) ) ;
#7 = LINE ( 'NONE', #120, #232 ) ;
#8 = ORGANIZATION ( 'NEURÈENÝ', 'NEURÈENÝ', '' ) ;
#9 = DIRECTION ( 'NONE',  ( -1.000000000000000000, 0.000000000000000000, 0.000000000000000000 ) ) ;
#10 = CALENDAR_DATE ( 2023, 12, 2 ) ;
#11 = APPROVAL_DATE_TIME ( #184, #206 ) ;
#12 = PERSON_AND_ORGANIZATION ( #203, #8 ) ;
#13 = EDGE_LOOP ( 'NONE', ( #127, #248, #119, #81 ) ) ;
#14 = CIRCLE ( 'NONE', #160, 5.000000000000000000 ) ;
#15 = VECTOR ( 'NONE', #172, 1000.000000000000000 ) ;
#16 = ORIENTED_EDGE ( 'NONE', *, *, #214, .F. ) ;
#17 = DIRECTION ( 'NONE',  ( -0.000000000000000000, -0.000000000000000000, -1.000000000000000000 ) ) ;
#18 = CC_DESIGN_PERSON_AND_ORGANIZATION_ASSIGNMENT ( #46, #226, ( #251 ) ) ;
#19 = DIRECTION ( 'NONE',  ( 0.000000000000000000, 0.000000000000000000, 1.000000000000000000 ) ) ;
#20 = DIRECTION ( 'NONE',  ( 0.000000000000000000, 0.000000000000000000, 1.000000000000000000 ) ) ;
#21 = CARTESIAN_POINT ( 'NONE',  ( 5.000000000000000000, 6.123233995736766282E-16, 3.000000000000000000 ) ) ;
#22 = AXIS2_PLACEMENT_3D ( 'NONE', #118, #1, #254 ) ;
#23 = DIRECTION ( 'NONE',  ( 1.000000000000000000, 0.000000000000000000, 0.000000000000000000 ) ) ;
#24 = CYLINDRICAL_SURFACE ( 'NONE', #236, 5.000000000000000000 ) ;
#25 = VECTOR ( 'NONE', #114, 1000.000000000000000 ) ;
#26 = DIRECTION ( 'NONE',  ( 1.000000000000000000, 0.000000000000000000, 0.000000000000000000 ) ) ;
#27 = DIRECTION ( 'NONE',  ( 0.000000000000000000, 0.000000000000000000, 1.000000000000000000 ) ) ;
#28 = EDGE_CURVE ( 'NONE', #233, #192, #36, .T. ) ;
#29 = SHAPE_DEFINITION_REPRESENTATION ( #58, #89 ) ;
#30 = APPROVAL_DATE_TIME ( #247, #103 ) ;
#31 = VERTEX_POINT ( 'NONE', #154 ) ;
#32 = CARTESIAN_POINT ( 'NONE',  ( -2.750000000000000000, 0.000000000000000000, 400.0000000000000000 ) ) ;
#33 = ADVANCED_FACE ( 'NONE', ( #193 ), #92, .T. ) ;
#34 = CARTESIAN_POINT ( 'NONE',  ( 0.000000000000000000, 0.000000000000000000, 400.0000000000000000 ) ) ;
#35 = LOCAL_TIME ( 12, 41, 27.00000000000000000, #246 ) ;
#36 = CIRCLE ( 'NONE', #22, 2.750000000000000000 ) ;
#37 = ORIENTED_EDGE ( 'NONE', *, *, #190, .F. ) ;
#38 = CARTESIAN_POINT ( 'NONE',  ( 0.000000000000000000, 0.000000000000000000, 3.000000000000000000 ) ) ;
#39 = LINE ( 'NONE', #197, #245 ) ;
#40 = DIRECTION ( 'NONE',  ( -1.000000000000000000, 0.000000000000000000, 0.000000000000000000 ) ) ;
#41 = CARTESIAN_POINT ( 'NONE',  ( 2.750000000000000000, 3.367778697655221012E-16, 400.0000000000000000 ) ) ;
#42 = CC_DESIGN_APPROVAL ( #103, ( #87 ) ) ;
#43 = PERSON_AND_ORGANIZATION ( #203, #8 ) ;
#44 = APPROVAL_STATUS ( 'not_yet_approved' ) ;
#45 = CC_DESIGN_APPROVAL ( #206, ( #251 ) ) ;
#46 = PERSON_AND_ORGANIZATION ( #203, #8 ) ;
#47 = ORIENTED_EDGE ( 'NONE', *, *, #140, .T. ) ;
#48 = ORIENTED_EDGE ( 'NONE', *, *, #214, .T. ) ;
#49 = DIRECTION ( 'NONE',  ( 1.000000000000000000, 0.000000000000000000, 0.000000000000000000 ) ) ;
#50 = ORIENTED_EDGE ( 'NONE', *, *, #28, .T. ) ;
#51 = DIRECTION ( 'NONE',  ( 1.000000000000000000, 0.000000000000000000, -0.000000000000000000 ) ) ;
#52 = FACE_OUTER_BOUND ( 'NONE', #210, .T. ) ;
#53 = DIRECTION ( 'NONE',  ( 0.000000000000000000, 0.000000000000000000, 1.000000000000000000 ) ) ;
#54 = APPROVAL_PERSON_ORGANIZATION ( #12, #206, #62 ) ;
#55 = CYLINDRICAL_SURFACE ( 'NONE', #100, 5.000000000000000000 ) ;
#56 = PRODUCT_RELATED_PRODUCT_CATEGORY ( 'detail', '', ( #6 ) ) ;
#57 = DIRECTION ( 'NONE',  ( 1.000000000000000000, 0.000000000000000000, -0.000000000000000000 ) ) ;
#58 = PRODUCT_DEFINITION_SHAPE ( 'NONE', 'NONE',  #87 ) ;
#59 = APPROVAL_STATUS ( 'not_yet_approved' ) ;
#60 = PERSON_AND_ORGANIZATION ( #203, #8 ) ;
#61 = ORIENTED_EDGE ( 'NONE', *, *, #4, .T. ) ;
#62 = APPROVAL_ROLE ( '' ) ;
#63 = AXIS2_PLACEMENT_3D ( 'NONE', #234, #20, #49 ) ;
#64 = CALENDAR_DATE ( 2023, 12, 2 ) ;
#65 = EDGE_CURVE ( 'NONE', #113, #31, #152, .T. ) ;
#66 = COORDINATED_UNIVERSAL_TIME_OFFSET ( 1, 0, .AHEAD. ) ;
#67 = VERTEX_POINT ( 'NONE', #211 ) ;
#68 = ORIENTED_EDGE ( 'NONE', *, *, #4, .F. ) ;
#69 = FACE_OUTER_BOUND ( 'NONE', #170, .T. ) ;
#70 = DIRECTION ( 'NONE',  ( 0.000000000000000000, 0.000000000000000000, 1.000000000000000000 ) ) ;
#71 = ORIENTED_EDGE ( 'NONE', *, *, #176, .F. ) ;
#72 = LOCAL_TIME ( 12, 41, 27.00000000000000000, #252 ) ;
#73 = CC_DESIGN_DATE_AND_TIME_ASSIGNMENT ( #85, #146, ( #87 ) ) ;
#74 = CARTESIAN_POINT ( 'NONE',  ( -2.750000000000000000, 0.000000000000000000, 400.0000000000000000 ) ) ;
#75 = CARTESIAN_POINT ( 'NONE',  ( 0.000000000000000000, 0.000000000000000000, 0.000000000000000000 ) ) ;
#76 = DIRECTION ( 'NONE',  ( -0.000000000000000000, -0.000000000000000000, -1.000000000000000000 ) ) ;
#77 = DIRECTION ( 'NONE',  ( 1.000000000000000000, 0.000000000000000000, 0.000000000000000000 ) ) ;
#78 = DIRECTION ( 'NONE',  ( -0.000000000000000000, -0.000000000000000000, -1.000000000000000000 ) ) ;
#79 = APPROVAL_ROLE ( '' ) ;
#80 = ORIENTED_EDGE ( 'NONE', *, *, #195, .T. ) ;
#81 = ORIENTED_EDGE ( 'NONE', *, *, #237, .F. ) ;
#82 = ADVANCED_FACE ( 'NONE', ( #69 ), #191, .T. ) ;
#83 = AXIS2_PLACEMENT_3D ( 'NONE', #221, #243, #98 ) ;
#84 = AXIS2_PLACEMENT_3D ( 'NONE', #255, #17, #156 ) ;
#85 = DATE_AND_TIME ( #64, #72 ) ;
#86 = DESIGN_CONTEXT ( 'detailed design', #196, 'design' ) ;
#87 = PRODUCT_DEFINITION ( 'NEZNÁMÝ', '', #208, #86 ) ;
#88 = EDGE_LOOP ( 'NONE', ( #132, #71 ) ) ;
#89 = ADVANCED_BREP_SHAPE_REPRESENTATION ( '9c5d', ( #217, #128 ), #115 ) ;
#90 = AXIS2_PLACEMENT_3D ( 'NONE', #75, #139, #57 ) ;
#91 = VERTEX_POINT ( 'NONE', #235 ) ;
#92 = PLANE ( 'NONE',  #179 ) ;
#93 = DIRECTION ( 'NONE',  ( 1.000000000000000000, 0.000000000000000000, 0.000000000000000000 ) ) ;
#94 = ORIENTED_EDGE ( 'NONE', *, *, #65, .T. ) ;
#95 = APPROVAL_PERSON_ORGANIZATION ( #60, #188, #79 ) ;
#96 = CIRCLE ( 'NONE', #106, 5.000000000000000000 ) ;
#97 = LOCAL_TIME ( 12, 41, 27.00000000000000000, #224 ) ;
#98 = DIRECTION ( 'NONE',  ( -1.000000000000000000, 0.000000000000000000, 0.000000000000000000 ) ) ;
#99 = DIRECTION ( 'NONE',  ( -0.000000000000000000, -0.000000000000000000, -1.000000000000000000 ) ) ;
#100 = AXIS2_PLACEMENT_3D ( 'NONE', #223, #182, #9 ) ;
#101 = CC_DESIGN_APPROVAL ( #188, ( #208 ) ) ;
#102 = PLANE ( 'NONE',  #90 ) ;
#103 = APPROVAL ( #167, 'NEURÈENÝ' ) ;
#104 = DATE_TIME_ROLE ( 'classification_date' ) ;
#105 = EDGE_LOOP ( 'NONE', ( #80, #212 ) ) ;
#106 = AXIS2_PLACEMENT_3D ( 'NONE', #219, #124, #3 ) ;
#107 = PERSON_AND_ORGANIZATION_ROLE ( 'design_supplier' ) ;
#108 = CALENDAR_DATE ( 2023, 12, 2 ) ;
#109 = CC_DESIGN_PERSON_AND_ORGANIZATION_ASSIGNMENT ( #165, #107, ( #208 ) ) ;
#110 = UNCERTAINTY_MEASURE_WITH_UNIT (LENGTH_MEASURE( 1.000000000000000082E-05 ), #163, 'distance_accuracy_value', 'NONE');
#111 = AXIS2_PLACEMENT_3D ( 'NONE', #159, #239, #23 ) ;
#112 = CIRCLE ( 'NONE', #136, 2.750000000000000000 ) ;
#113 = VERTEX_POINT ( 'NONE', #171 ) ;
#114 = DIRECTION ( 'NONE',  ( -0.000000000000000000, -0.000000000000000000, -1.000000000000000000 ) ) ;
#115 =( GEOMETRIC_REPRESENTATION_CONTEXT ( 3 ) GLOBAL_UNCERTAINTY_ASSIGNED_CONTEXT ( ( #110 ) ) GLOBAL_UNIT_ASSIGNED_CONTEXT ( ( #163, #244, #161 ) ) REPRESENTATION_CONTEXT ( 'NONE', 'WORKASPACE' ) );
#116 = ORIENTED_EDGE ( 'NONE', *, *, #195, .F. ) ;
#117 = EDGE_CURVE ( 'NONE', #91, #169, #218, .T. ) ;
#118 = CARTESIAN_POINT ( 'NONE',  ( 0.000000000000000000, 0.000000000000000000, 400.0000000000000000 ) ) ;
#119 = ORIENTED_EDGE ( 'NONE', *, *, #176, .T. ) ;
#120 = CARTESIAN_POINT ( 'NONE',  ( -5.000000000000000000, 0.000000000000000000, 3.000000000000000000 ) ) ;
#121 = CLOSED_SHELL ( 'NONE', ( #225, #228, #220, #150, #155, #82, #33 ) ) ;
#122 = CARTESIAN_POINT ( 'NONE',  ( 0.000000000000000000, 0.000000000000000000, 0.000000000000000000 ) ) ;
#123 = CC_DESIGN_SECURITY_CLASSIFICATION ( #251, ( #208 ) ) ;
#124 = DIRECTION ( 'NONE',  ( 0.000000000000000000, 0.000000000000000000, 1.000000000000000000 ) ) ;
#125 = CC_DESIGN_PERSON_AND_ORGANIZATION_ASSIGNMENT ( #145, #149, ( #87 ) ) ;
#126 = PERSON_AND_ORGANIZATION_ROLE ( 'design_owner' ) ;
#127 = ORIENTED_EDGE ( 'NONE', *, *, #250, .F. ) ;
#128 = AXIS2_PLACEMENT_3D ( 'NONE', #122, #200, #26 ) ;
#129 = COORDINATED_UNIVERSAL_TIME_OFFSET ( 1, 0, .AHEAD. ) ;
#130 = APPROVAL_DATE_TIME ( #204, #188 ) ;
#131 = CIRCLE ( 'NONE', #111, 5.000000000000000000 ) ;
#132 = ORIENTED_EDGE ( 'NONE', *, *, #65, .F. ) ;
#133 = CC_DESIGN_DATE_AND_TIME_ASSIGNMENT ( #249, #104, ( #251 ) ) ;
#134 = DIRECTION ( 'NONE',  ( 1.000000000000000000, 0.000000000000000000, 0.000000000000000000 ) ) ;
#135 = VERTEX_POINT ( 'NONE', #21 ) ;
#136 = AXIS2_PLACEMENT_3D ( 'NONE', #34, #19, #93 ) ;
#137 = CARTESIAN_POINT ( 'NONE',  ( 0.000000000000000000, 0.000000000000000000, 400.0000000000000000 ) ) ;
#138 = LINE ( 'NONE', #194, #15 ) ;
#139 = DIRECTION ( 'NONE',  ( 0.000000000000000000, 0.000000000000000000, 1.000000000000000000 ) ) ;
#140 = EDGE_CURVE ( 'NONE', #192, #233, #112, .T. ) ;
#141 = FACE_OUTER_BOUND ( 'NONE', #13, .T. ) ;
#142 = CARTESIAN_POINT ( 'NONE',  ( 0.000000000000000000, 0.000000000000000000, 3.000000000000000000 ) ) ;
#143 = DIRECTION ( 'NONE',  ( 1.000000000000000000, 0.000000000000000000, 0.000000000000000000 ) ) ;
#144 = EDGE_CURVE ( 'NONE', #135, #31, #138, .T. ) ;
#145 = PERSON_AND_ORGANIZATION ( #203, #8 ) ;
#146 = DATE_TIME_ROLE ( 'creation_date' ) ;
#147 = APPLICATION_PROTOCOL_DEFINITION ( 'international standard', 'config_control_design', 1994, #196 ) ;
#148 = PERSON_AND_ORGANIZATION ( #203, #8 ) ;
#149 = PERSON_AND_ORGANIZATION_ROLE ( 'creator' ) ;
#150 = ADVANCED_FACE ( 'NONE', ( #173, #2 ), #158, .T. ) ;
#151 = ORIENTED_EDGE ( 'NONE', *, *, #117, .F. ) ;
#152 = CIRCLE ( 'NONE', #199, 5.000000000000000000 ) ;
#153 = DIRECTION ( 'NONE',  ( 0.000000000000000000, 0.000000000000000000, 1.000000000000000000 ) ) ;
#154 = CARTESIAN_POINT ( 'NONE',  ( 5.000000000000000000, 6.123233995736766282E-16, 0.000000000000000000 ) ) ;
#155 = ADVANCED_FACE ( 'NONE', ( #202 ), #102, .F. ) ;
#156 = DIRECTION ( 'NONE',  ( -1.000000000000000000, 0.000000000000000000, 0.000000000000000000 ) ) ;
#157 = APPROVAL_PERSON_ORGANIZATION ( #148, #103, #183 ) ;
#158 = PLANE ( 'NONE',  #209 ) ;
#159 = CARTESIAN_POINT ( 'NONE',  ( 0.000000000000000000, 0.000000000000000000, 3.000000000000000000 ) ) ;
#160 = AXIS2_PLACEMENT_3D ( 'NONE', #142, #27, #143 ) ;
#161 =( NAMED_UNIT ( * ) SI_UNIT ( $, .STERADIAN. ) SOLID_ANGLE_UNIT ( ) );
#162 = LOCAL_TIME ( 12, 41, 27.00000000000000000, #66 ) ;
#163 =( LENGTH_UNIT ( ) NAMED_UNIT ( * ) SI_UNIT ( .MILLI., .METRE. ) );
#164 = MECHANICAL_CONTEXT ( 'NONE', #201, 'mechanical' ) ;
#165 = PERSON_AND_ORGANIZATION ( #203, #8 ) ;
#166 = ORIENTED_EDGE ( 'NONE', *, *, #28, .F. ) ;
#167 = APPROVAL_STATUS ( 'not_yet_approved' ) ;
#168 = CALENDAR_DATE ( 2023, 12, 2 ) ;
#169 = VERTEX_POINT ( 'NONE', #216 ) ;
#170 = EDGE_LOOP ( 'NONE', ( #37, #185, #61, #48 ) ) ;
#171 = CARTESIAN_POINT ( 'NONE',  ( -5.000000000000000000, 0.000000000000000000, 0.000000000000000000 ) ) ;
#172 = DIRECTION ( 'NONE',  ( -0.000000000000000000, -0.000000000000000000, -1.000000000000000000 ) ) ;
#173 = FACE_BOUND ( 'NONE', #227, .T. ) ;
#174 = AXIS2_PLACEMENT_3D ( 'NONE', #240, #53, #77 ) ;
#175 = EDGE_LOOP ( 'NONE', ( #231, #116, #189, #94 ) ) ;
#176 = EDGE_CURVE ( 'NONE', #31, #113, #96, .T. ) ;
#177 = DIRECTION ( 'NONE',  ( 0.000000000000000000, 0.000000000000000000, 1.000000000000000000 ) ) ;
#178 = CARTESIAN_POINT ( 'NONE',  ( 0.000000000000000000, 0.000000000000000000, 3.000000000000000000 ) ) ;
#179 = AXIS2_PLACEMENT_3D ( 'NONE', #137, #70, #51 ) ;
#180 = APPLICATION_PROTOCOL_DEFINITION ( 'international standard', 'config_control_design', 1994, #201 ) ;
#181 = CC_DESIGN_PERSON_AND_ORGANIZATION_ASSIGNMENT ( #186, #229, ( #208 ) ) ;
#182 = DIRECTION ( 'NONE',  ( -0.000000000000000000, -0.000000000000000000, -1.000000000000000000 ) ) ;
#183 = APPROVAL_ROLE ( '' ) ;
#184 = DATE_AND_TIME ( #187, #162 ) ;
#185 = ORIENTED_EDGE ( 'NONE', *, *, #140, .F. ) ;
#186 = PERSON_AND_ORGANIZATION ( #203, #8 ) ;
#187 = CALENDAR_DATE ( 2023, 12, 2 ) ;
#188 = APPROVAL ( #59, 'NEURÈENÝ' ) ;
#189 = ORIENTED_EDGE ( 'NONE', *, *, #237, .T. ) ;
#190 = EDGE_CURVE ( 'NONE', #233, #91, #39, .T. ) ;
#191 = CYLINDRICAL_SURFACE ( 'NONE', #84, 2.750000000000000000 ) ;
#192 = VERTEX_POINT ( 'NONE', #74 ) ;
#193 = FACE_OUTER_BOUND ( 'NONE', #215, .T. ) ;
#194 = CARTESIAN_POINT ( 'NONE',  ( 5.000000000000000000, 6.123233995736766282E-16, 3.000000000000000000 ) ) ;
#195 = EDGE_CURVE ( 'NONE', #67, #135, #131, .T. ) ;
#196 = APPLICATION_CONTEXT ( 'configuration controlled 3d designs of mechanical parts and assemblies' ) ;
#197 = CARTESIAN_POINT ( 'NONE',  ( 2.750000000000000000, 3.367778697655221012E-16, 400.0000000000000000 ) ) ;
#198 = CYLINDRICAL_SURFACE ( 'NONE', #83, 2.750000000000000000 ) ;
#199 = AXIS2_PLACEMENT_3D ( 'NONE', #213, #153, #134 ) ;
#200 = DIRECTION ( 'NONE',  ( 0.000000000000000000, 0.000000000000000000, 1.000000000000000000 ) ) ;
#201 = APPLICATION_CONTEXT ( 'configuration controlled 3d designs of mechanical parts and assemblies' ) ;
#202 = FACE_OUTER_BOUND ( 'NONE', #88, .T. ) ;
#203 = PERSON ( 'NEURÈENÝ', 'NEURÈENÝ', 'NEURÈENÝ', ('NEURÈENÝ'), ('NEURÈENÝ'), ('NEURÈENÝ') ) ;
#204 = DATE_AND_TIME ( #168, #97 ) ;
#205 = LOCAL_TIME ( 12, 41, 27.00000000000000000, #129 ) ;
#206 = APPROVAL ( #44, 'NEURÈENÝ' ) ;
#207 = SECURITY_CLASSIFICATION_LEVEL ( 'unclassified' ) ;
#208 = PRODUCT_DEFINITION_FORMATION_WITH_SPECIFIED_SOURCE ( 'LIBOVOLNÝ', '', #6, .NOT_KNOWN. ) ;
#209 = AXIS2_PLACEMENT_3D ( 'NONE', #38, #177, #5 ) ;
#210 = EDGE_LOOP ( 'NONE', ( #166, #253, #230, #68 ) ) ;
#211 = CARTESIAN_POINT ( 'NONE',  ( -5.000000000000000000, 0.000000000000000000, 3.000000000000000000 ) ) ;
#212 = ORIENTED_EDGE ( 'NONE', *, *, #250, .T. ) ;
#213 = CARTESIAN_POINT ( 'NONE',  ( 0.000000000000000000, 0.000000000000000000, 0.000000000000000000 ) ) ;
#214 = EDGE_CURVE ( 'NONE', #169, #91, #242, .T. ) ;
#215 = EDGE_LOOP ( 'NONE', ( #47, #50 ) ) ;
#216 = CARTESIAN_POINT ( 'NONE',  ( -2.750000000000000000, 0.000000000000000000, 3.000000000000000000 ) ) ;
#217 = MANIFOLD_SOLID_BREP ( 'Pøidat vysunutím3', #121 ) ;
#218 = CIRCLE ( 'NONE', #63, 2.750000000000000000 ) ;
#219 = CARTESIAN_POINT ( 'NONE',  ( 0.000000000000000000, 0.000000000000000000, 0.000000000000000000 ) ) ;
#220 = ADVANCED_FACE ( 'NONE', ( #222 ), #55, .T. ) ;
#221 = CARTESIAN_POINT ( 'NONE',  ( 0.000000000000000000, 0.000000000000000000, 400.0000000000000000 ) ) ;
#222 = FACE_OUTER_BOUND ( 'NONE', #175, .T. ) ;
#223 = CARTESIAN_POINT ( 'NONE',  ( 0.000000000000000000, 0.000000000000000000, 3.000000000000000000 ) ) ;
#224 = COORDINATED_UNIVERSAL_TIME_OFFSET ( 1, 0, .AHEAD. ) ;
#225 = ADVANCED_FACE ( 'NONE', ( #52 ), #198, .T. ) ;
#226 = PERSON_AND_ORGANIZATION_ROLE ( 'classification_officer' ) ;
#227 = EDGE_LOOP ( 'NONE', ( #16, #151 ) ) ;
#228 = ADVANCED_FACE ( 'NONE', ( #141 ), #24, .T. ) ;
#229 = PERSON_AND_ORGANIZATION_ROLE ( 'creator' ) ;
#230 = ORIENTED_EDGE ( 'NONE', *, *, #117, .T. ) ;
#231 = ORIENTED_EDGE ( 'NONE', *, *, #144, .F. ) ;
#232 = VECTOR ( 'NONE', #76, 1000.000000000000000 ) ;
#233 = VERTEX_POINT ( 'NONE', #41 ) ;
#234 = CARTESIAN_POINT ( 'NONE',  ( 0.000000000000000000, 0.000000000000000000, 3.000000000000000000 ) ) ;
#235 = CARTESIAN_POINT ( 'NONE',  ( 2.750000000000000000, 3.367778697655221012E-16, 3.000000000000000000 ) ) ;
#236 = AXIS2_PLACEMENT_3D ( 'NONE', #178, #78, #40 ) ;
#237 = EDGE_CURVE ( 'NONE', #67, #113, #7, .T. ) ;
#238 = LINE ( 'NONE', #32, #25 ) ;
#239 = DIRECTION ( 'NONE',  ( 0.000000000000000000, 0.000000000000000000, 1.000000000000000000 ) ) ;
#240 = CARTESIAN_POINT ( 'NONE',  ( 0.000000000000000000, 0.000000000000000000, 3.000000000000000000 ) ) ;
#241 = CC_DESIGN_PERSON_AND_ORGANIZATION_ASSIGNMENT ( #43, #126, ( #6 ) ) ;
#242 = CIRCLE ( 'NONE', #174, 2.750000000000000000 ) ;
#243 = DIRECTION ( 'NONE',  ( -0.000000000000000000, -0.000000000000000000, -1.000000000000000000 ) ) ;
#244 =( NAMED_UNIT ( * ) PLANE_ANGLE_UNIT ( ) SI_UNIT ( $, .RADIAN. ) );
#245 = VECTOR ( 'NONE', #99, 1000.000000000000000 ) ;
#246 = COORDINATED_UNIVERSAL_TIME_OFFSET ( 1, 0, .AHEAD. ) ;
#247 = DATE_AND_TIME ( #10, #35 ) ;
#248 = ORIENTED_EDGE ( 'NONE', *, *, #144, .T. ) ;
#249 = DATE_AND_TIME ( #108, #205 ) ;
#250 = EDGE_CURVE ( 'NONE', #135, #67, #14, .T. ) ;
#251 = SECURITY_CLASSIFICATION ( '', '', #207 ) ;
#252 = COORDINATED_UNIVERSAL_TIME_OFFSET ( 1, 0, .AHEAD. ) ;
#253 = ORIENTED_EDGE ( 'NONE', *, *, #190, .T. ) ;
#254 = DIRECTION ( 'NONE',  ( 1.000000000000000000, 0.000000000000000000, 0.000000000000000000 ) ) ;
#255 = CARTESIAN_POINT ( 'NONE',  ( 0.000000000000000000, 0.000000000000000000, 400.0000000000000000 ) ) ;
ENDSEC;
END-ISO-10303-21;
