ISO-10303-21;
HEADER;
FILE_DESCRIPTION (( 'STEP AP203' ),
    '1' );
FILE_NAME ('8853.STEP',
    '2023-02-12T11:51:54',
    ( '' ),
    ( '' ),
    'SwSTEP 2.0',
    'SolidWorks 2019',
    '' );
FILE_SCHEMA (( 'CONFIG_CONTROL_DESIGN' ));
ENDSEC;

DATA;
#1 = ORIENTED_EDGE ( 'NONE', *, *, #248, .F. ) ;
#2 = PERSON_AND_ORGANIZATION ( #4, #6 ) ;
#3 = LINE ( 'NONE', #221, #61 ) ;
#4 = PERSON ( 'NEURÈENÝ', 'NEURÈENÝ', 'NEURÈENÝ', ('NEURÈENÝ'), ('NEURÈENÝ'), ('NEURÈENÝ') ) ;
#5 = FACE_OUTER_BOUND ( 'NONE', #169, .T. ) ;
#6 = ORGANIZATION ( 'NEURÈENÝ', 'NEURÈENÝ', '' ) ;
#7 = LINE ( 'NONE', #126, #47 ) ;
#8 = APPROVAL_ROLE ( '' ) ;
#9 = AXIS2_PLACEMENT_3D ( 'NONE', #119, #158, #194 ) ;
#10 = CC_DESIGN_SECURITY_CLASSIFICATION ( #223, ( #36 ) ) ;
#11 = EDGE_LOOP ( 'NONE', ( #112, #205, #50, #68 ) ) ;
#12 = CIRCLE ( 'NONE', #85, 5.000000000000000000 ) ;
#13 = VERTEX_POINT ( 'NONE', #71 ) ;
#14 = LOCAL_TIME ( 12, 51, 54.00000000000000000, #244 ) ;
#15 = CARTESIAN_POINT ( 'NONE',  ( -2.500000000000000000, 0.000000000000000000, 125.0000000000000000 ) ) ;
#16 = VECTOR ( 'NONE', #193, 1000.000000000000000 ) ;
#17 = AXIS2_PLACEMENT_3D ( 'NONE', #107, #62, #27 ) ;
#18 = CARTESIAN_POINT ( 'NONE',  ( 0.000000000000000000, 0.000000000000000000, 125.0000000000000000 ) ) ;
#19 = CARTESIAN_POINT ( 'NONE',  ( 5.000000000000000000, 6.123233995736766282E-16, 3.000000000000000000 ) ) ;
#20 = PERSON_AND_ORGANIZATION ( #4, #6 ) ;
#21 = FACE_OUTER_BOUND ( 'NONE', #11, .T. ) ;
#22 = DIRECTION ( 'NONE',  ( 0.000000000000000000, 0.000000000000000000, 1.000000000000000000 ) ) ;
#23 = ADVANCED_FACE ( 'NONE', ( #37 ), #79, .F. ) ;
#24 = COORDINATED_UNIVERSAL_TIME_OFFSET ( 1, 0, .AHEAD. ) ;
#25 = PLANE ( 'NONE',  #187 ) ;
#26 = APPROVAL ( #232, 'NEURÈENÝ' ) ;
#27 = DIRECTION ( 'NONE',  ( 1.000000000000000000, 0.000000000000000000, 0.000000000000000000 ) ) ;
#28 = CIRCLE ( 'NONE', #94, 2.500000000000000000 ) ;
#29 = VERTEX_POINT ( 'NONE', #41 ) ;
#30 = ORIENTED_EDGE ( 'NONE', *, *, #204, .F. ) ;
#31 = CC_DESIGN_PERSON_AND_ORGANIZATION_ASSIGNMENT ( #153, #77, ( #76 ) ) ;
#32 = ORIENTED_EDGE ( 'NONE', *, *, #204, .T. ) ;
#33 = CARTESIAN_POINT ( 'NONE',  ( 0.000000000000000000, 0.000000000000000000, 0.000000000000000000 ) ) ;
#34 = DIRECTION ( 'NONE',  ( 1.000000000000000000, 0.000000000000000000, -0.000000000000000000 ) ) ;
#35 = PERSON_AND_ORGANIZATION_ROLE ( 'creator' ) ;
#36 = PRODUCT_DEFINITION_FORMATION_WITH_SPECIFIED_SOURCE ( 'LIBOVOLNÝ', '', #164, .NOT_KNOWN. ) ;
#37 = FACE_OUTER_BOUND ( 'NONE', #150, .T. ) ;
#38 = COORDINATED_UNIVERSAL_TIME_OFFSET ( 1, 0, .AHEAD. ) ;
#39 = CARTESIAN_POINT ( 'NONE',  ( 0.000000000000000000, 0.000000000000000000, 3.000000000000000000 ) ) ;
#40 = DIRECTION ( 'NONE',  ( 1.000000000000000000, 0.000000000000000000, 0.000000000000000000 ) ) ;
#41 = CARTESIAN_POINT ( 'NONE',  ( 5.000000000000000000, 6.123233995736766282E-16, 3.000000000000000000 ) ) ;
#42 = COORDINATED_UNIVERSAL_TIME_OFFSET ( 1, 0, .AHEAD. ) ;
#43 = DIRECTION ( 'NONE',  ( -0.000000000000000000, -0.000000000000000000, -1.000000000000000000 ) ) ;
#44 = CARTESIAN_POINT ( 'NONE',  ( -5.000000000000000000, 0.000000000000000000, 0.000000000000000000 ) ) ;
#45 = EDGE_CURVE ( 'NONE', #13, #29, #12, .T. ) ;
#46 = FACE_BOUND ( 'NONE', #95, .T. ) ;
#47 = VECTOR ( 'NONE', #200, 1000.000000000000000 ) ;
#48 = CIRCLE ( 'NONE', #149, 2.500000000000000000 ) ;
#49 = APPROVAL_PERSON_ORGANIZATION ( #174, #66, #54 ) ;
#50 = ORIENTED_EDGE ( 'NONE', *, *, #224, .T. ) ;
#51 = CIRCLE ( 'NONE', #17, 5.000000000000000000 ) ;
#52 = EDGE_CURVE ( 'NONE', #147, #70, #28, .T. ) ;
#53 = CYLINDRICAL_SURFACE ( 'NONE', #183, 5.000000000000000000 ) ;
#54 = APPROVAL_ROLE ( '' ) ;
#55 = FACE_OUTER_BOUND ( 'NONE', #89, .T. ) ;
#56 = CARTESIAN_POINT ( 'NONE',  ( 2.500000000000000000, 3.061616997868382648E-16, 3.000000000000000000 ) ) ;
#57 = APPROVAL_DATE_TIME ( #140, #26 ) ;
#58 = ADVANCED_FACE ( 'NONE', ( #214 ), #173, .T. ) ;
#59 = DIRECTION ( 'NONE',  ( 1.000000000000000000, 0.000000000000000000, 0.000000000000000000 ) ) ;
#60 = DIRECTION ( 'NONE',  ( -0.000000000000000000, -0.000000000000000000, -1.000000000000000000 ) ) ;
#61 = VECTOR ( 'NONE', #43, 1000.000000000000000 ) ;
#62 = DIRECTION ( 'NONE',  ( 0.000000000000000000, 0.000000000000000000, 1.000000000000000000 ) ) ;
#63 = CC_DESIGN_PERSON_AND_ORGANIZATION_ASSIGNMENT ( #20, #218, ( #164 ) ) ;
#64 = LOCAL_TIME ( 12, 51, 54.00000000000000000, #42 ) ;
#65 = EDGE_LOOP ( 'NONE', ( #111, #177, #168, #247 ) ) ;
#66 = APPROVAL ( #162, 'NEURÈENÝ' ) ;
#67 = ORIENTED_EDGE ( 'NONE', *, *, #105, .T. ) ;
#68 = ORIENTED_EDGE ( 'NONE', *, *, #152, .T. ) ;
#69 = CLOSED_SHELL ( 'NONE', ( #245, #186, #58, #201, #23, #170, #129 ) ) ;
#70 = VERTEX_POINT ( 'NONE', #73 ) ;
#71 = CARTESIAN_POINT ( 'NONE',  ( -5.000000000000000000, 0.000000000000000000, 3.000000000000000000 ) ) ;
#72 = DIRECTION ( 'NONE',  ( 0.000000000000000000, 0.000000000000000000, 1.000000000000000000 ) ) ;
#73 = CARTESIAN_POINT ( 'NONE',  ( 2.500000000000000000, 3.061616997868382648E-16, 125.0000000000000000 ) ) ;
#74 = PERSON_AND_ORGANIZATION ( #4, #6 ) ;
#75 = PLANE ( 'NONE',  #243 ) ;
#76 = PRODUCT_DEFINITION ( 'NEZNÁMÝ', '', #36, #212 ) ;
#77 = PERSON_AND_ORGANIZATION_ROLE ( 'creator' ) ;
#78 = CIRCLE ( 'NONE', #165, 2.500000000000000000 ) ;
#79 = PLANE ( 'NONE',  #100 ) ;
#80 = PERSON_AND_ORGANIZATION_ROLE ( 'classification_officer' ) ;
#81 = VERTEX_POINT ( 'NONE', #210 ) ;
#82 = SECURITY_CLASSIFICATION_LEVEL ( 'unclassified' ) ;
#83 = FACE_OUTER_BOUND ( 'NONE', #134, .T. ) ;
#84 = AXIS2_PLACEMENT_3D ( 'NONE', #254, #231, #141 ) ;
#85 = AXIS2_PLACEMENT_3D ( 'NONE', #120, #22, #239 ) ;
#86 = PRODUCT_DEFINITION_SHAPE ( 'NONE', 'NONE',  #76 ) ;
#87 = APPROVAL_PERSON_ORGANIZATION ( #199, #26, #211 ) ;
#88 = DATE_AND_TIME ( #145, #14 ) ;
#89 = EDGE_LOOP ( 'NONE', ( #229, #32 ) ) ;
#90 = VECTOR ( 'NONE', #252, 1000.000000000000000 ) ;
#91 = ORIENTED_EDGE ( 'NONE', *, *, #131, .F. ) ;
#92 = ORIENTED_EDGE ( 'NONE', *, *, #118, .F. ) ;
#93 = EDGE_CURVE ( 'NONE', #70, #167, #191, .T. ) ;
#94 = AXIS2_PLACEMENT_3D ( 'NONE', #18, #96, #114 ) ;
#95 = EDGE_LOOP ( 'NONE', ( #228, #91 ) ) ;
#96 = DIRECTION ( 'NONE',  ( 0.000000000000000000, 0.000000000000000000, 1.000000000000000000 ) ) ;
#97 = DIRECTION ( 'NONE',  ( 0.000000000000000000, 0.000000000000000000, 1.000000000000000000 ) ) ;
#98 = APPROVAL ( #130, 'NEURÈENÝ' ) ;
#99 = CYLINDRICAL_SURFACE ( 'NONE', #84, 2.500000000000000000 ) ;
#100 = AXIS2_PLACEMENT_3D ( 'NONE', #33, #97, #250 ) ;
#101 = CALENDAR_DATE ( 2023, 12, 2 ) ;
#102 = LOCAL_TIME ( 12, 51, 54.00000000000000000, #38 ) ;
#103 = CARTESIAN_POINT ( 'NONE',  ( 2.500000000000000000, 3.061616997868382648E-16, 125.0000000000000000 ) ) ;
#104 = DATE_AND_TIME ( #238, #192 ) ;
#105 = EDGE_CURVE ( 'NONE', #29, #115, #159, .T. ) ;
#106 =( LENGTH_UNIT ( ) NAMED_UNIT ( * ) SI_UNIT ( .MILLI., .METRE. ) );
#107 = CARTESIAN_POINT ( 'NONE',  ( 0.000000000000000000, 0.000000000000000000, 0.000000000000000000 ) ) ;
#108 = CIRCLE ( 'NONE', #157, 5.000000000000000000 ) ;
#109 = CARTESIAN_POINT ( 'NONE',  ( 0.000000000000000000, 0.000000000000000000, 125.0000000000000000 ) ) ;
#110 =( GEOMETRIC_REPRESENTATION_CONTEXT ( 3 ) GLOBAL_UNCERTAINTY_ASSIGNED_CONTEXT ( ( #154 ) ) GLOBAL_UNIT_ASSIGNED_CONTEXT ( ( #106, #241, #220 ) ) REPRESENTATION_CONTEXT ( 'NONE', 'WORKASPACE' ) );
#111 = ORIENTED_EDGE ( 'NONE', *, *, #105, .F. ) ;
#112 = ORIENTED_EDGE ( 'NONE', *, *, #93, .F. ) ;
#113 = AXIS2_PLACEMENT_3D ( 'NONE', #39, #60, #213 ) ;
#114 = DIRECTION ( 'NONE',  ( 1.000000000000000000, 0.000000000000000000, 0.000000000000000000 ) ) ;
#115 = VERTEX_POINT ( 'NONE', #171 ) ;
#116 = APPROVAL_PERSON_ORGANIZATION ( #2, #98, #8 ) ;
#117 = CALENDAR_DATE ( 2023, 12, 2 ) ;
#118 = EDGE_CURVE ( 'NONE', #188, #115, #108, .T. ) ;
#119 = CARTESIAN_POINT ( 'NONE',  ( 0.000000000000000000, 0.000000000000000000, 3.000000000000000000 ) ) ;
#120 = CARTESIAN_POINT ( 'NONE',  ( 0.000000000000000000, 0.000000000000000000, 3.000000000000000000 ) ) ;
#121 = APPLICATION_PROTOCOL_DEFINITION ( 'international standard', 'config_control_design', 1994, #136 ) ;
#122 = CIRCLE ( 'NONE', #9, 2.500000000000000000 ) ;
#123 = EDGE_LOOP ( 'NONE', ( #132, #67, #161, #1 ) ) ;
#124 = DATE_TIME_ROLE ( 'creation_date' ) ;
#125 = LOCAL_TIME ( 12, 51, 54.00000000000000000, #236 ) ;
#126 = CARTESIAN_POINT ( 'NONE',  ( -5.000000000000000000, 0.000000000000000000, 3.000000000000000000 ) ) ;
#127 = DIRECTION ( 'NONE',  ( 1.000000000000000000, 0.000000000000000000, 0.000000000000000000 ) ) ;
#128 = DIRECTION ( 'NONE',  ( 0.000000000000000000, 0.000000000000000000, 1.000000000000000000 ) ) ;
#129 = ADVANCED_FACE ( 'NONE', ( #55 ), #75, .T. ) ;
#130 = APPROVAL_STATUS ( 'not_yet_approved' ) ;
#131 = EDGE_CURVE ( 'NONE', #167, #81, #122, .T. ) ;
#132 = ORIENTED_EDGE ( 'NONE', *, *, #137, .F. ) ;
#133 = AXIS2_PLACEMENT_3D ( 'NONE', #109, #142, #184 ) ;
#134 = EDGE_LOOP ( 'NONE', ( #30, #148, #179, #146 ) ) ;
#135 = MANIFOLD_SOLID_BREP ( 'Pøidat vysunutím3', #69 ) ;
#136 = APPLICATION_CONTEXT ( 'configuration controlled 3d designs of mechanical parts and assemblies' ) ;
#137 = EDGE_CURVE ( 'NONE', #29, #13, #163, .T. ) ;
#138 = DIRECTION ( 'NONE',  ( 0.000000000000000000, 0.000000000000000000, 1.000000000000000000 ) ) ;
#139 = ORIENTED_EDGE ( 'NONE', *, *, #137, .T. ) ;
#140 = DATE_AND_TIME ( #101, #125 ) ;
#141 = DIRECTION ( 'NONE',  ( -1.000000000000000000, 0.000000000000000000, 0.000000000000000000 ) ) ;
#142 = DIRECTION ( 'NONE',  ( -0.000000000000000000, -0.000000000000000000, -1.000000000000000000 ) ) ;
#143 = CARTESIAN_POINT ( 'NONE',  ( 0.000000000000000000, 0.000000000000000000, 125.0000000000000000 ) ) ;
#144 = CC_DESIGN_DATE_AND_TIME_ASSIGNMENT ( #104, #180, ( #223 ) ) ;
#145 = CALENDAR_DATE ( 2023, 12, 2 ) ;
#146 = ORIENTED_EDGE ( 'NONE', *, *, #224, .F. ) ;
#147 = VERTEX_POINT ( 'NONE', #15 ) ;
#148 = ORIENTED_EDGE ( 'NONE', *, *, #93, .T. ) ;
#149 = AXIS2_PLACEMENT_3D ( 'NONE', #207, #249, #59 ) ;
#150 = EDGE_LOOP ( 'NONE', ( #92, #155 ) ) ;
#151 = DIRECTION ( 'NONE',  ( 1.000000000000000000, 0.000000000000000000, 0.000000000000000000 ) ) ;
#152 = EDGE_CURVE ( 'NONE', #81, #167, #48, .T. ) ;
#153 = PERSON_AND_ORGANIZATION ( #4, #6 ) ;
#154 = UNCERTAINTY_MEASURE_WITH_UNIT (LENGTH_MEASURE( 1.000000000000000082E-05 ), #106, 'distance_accuracy_value', 'NONE');
#155 = ORIENTED_EDGE ( 'NONE', *, *, #208, .F. ) ;
#156 = PERSON_AND_ORGANIZATION_ROLE ( 'design_supplier' ) ;
#157 = AXIS2_PLACEMENT_3D ( 'NONE', #175, #233, #235 ) ;
#158 = DIRECTION ( 'NONE',  ( 0.000000000000000000, 0.000000000000000000, 1.000000000000000000 ) ) ;
#159 = LINE ( 'NONE', #19, #16 ) ;
#160 = DATE_AND_TIME ( #117, #64 ) ;
#161 = ORIENTED_EDGE ( 'NONE', *, *, #208, .T. ) ;
#162 = APPROVAL_STATUS ( 'not_yet_approved' ) ;
#163 = CIRCLE ( 'NONE', #217, 5.000000000000000000 ) ;
#164 = PRODUCT ( '8853', '8853', '', ( #215 ) ) ;
#165 = AXIS2_PLACEMENT_3D ( 'NONE', #143, #203, #127 ) ;
#166 = SHAPE_DEFINITION_REPRESENTATION ( #86, #246 ) ;
#167 = VERTEX_POINT ( 'NONE', #56 ) ;
#168 = ORIENTED_EDGE ( 'NONE', *, *, #248, .T. ) ;
#169 = EDGE_LOOP ( 'NONE', ( #227, #139 ) ) ;
#170 = ADVANCED_FACE ( 'NONE', ( #21 ), #99, .T. ) ;
#171 = CARTESIAN_POINT ( 'NONE',  ( 5.000000000000000000, 6.123233995736766282E-16, 0.000000000000000000 ) ) ;
#172 = APPLICATION_PROTOCOL_DEFINITION ( 'international standard', 'config_control_design', 1994, #209 ) ;
#173 = CYLINDRICAL_SURFACE ( 'NONE', #113, 5.000000000000000000 ) ;
#174 = PERSON_AND_ORGANIZATION ( #4, #6 ) ;
#175 = CARTESIAN_POINT ( 'NONE',  ( 0.000000000000000000, 0.000000000000000000, 0.000000000000000000 ) ) ;
#176 = DATE_AND_TIME ( #196, #102 ) ;
#177 = ORIENTED_EDGE ( 'NONE', *, *, #45, .F. ) ;
#178 = PERSON_AND_ORGANIZATION ( #4, #6 ) ;
#179 = ORIENTED_EDGE ( 'NONE', *, *, #131, .T. ) ;
#180 = DATE_TIME_ROLE ( 'classification_date' ) ;
#181 = DIRECTION ( 'NONE',  ( 1.000000000000000000, 0.000000000000000000, -0.000000000000000000 ) ) ;
#182 = CARTESIAN_POINT ( 'NONE',  ( 0.000000000000000000, 0.000000000000000000, 3.000000000000000000 ) ) ;
#183 = AXIS2_PLACEMENT_3D ( 'NONE', #182, #219, #222 ) ;
#184 = DIRECTION ( 'NONE',  ( -1.000000000000000000, 0.000000000000000000, 0.000000000000000000 ) ) ;
#185 = APPROVAL_DATE_TIME ( #88, #98 ) ;
#186 = ADVANCED_FACE ( 'NONE', ( #197 ), #53, .T. ) ;
#187 = AXIS2_PLACEMENT_3D ( 'NONE', #202, #128, #181 ) ;
#188 = VERTEX_POINT ( 'NONE', #44 ) ;
#189 = CC_DESIGN_PERSON_AND_ORGANIZATION_ASSIGNMENT ( #255, #80, ( #223 ) ) ;
#190 = CARTESIAN_POINT ( 'NONE',  ( 0.000000000000000000, 0.000000000000000000, 3.000000000000000000 ) ) ;
#191 = LINE ( 'NONE', #103, #90 ) ;
#192 = LOCAL_TIME ( 12, 51, 54.00000000000000000, #24 ) ;
#193 = DIRECTION ( 'NONE',  ( -0.000000000000000000, -0.000000000000000000, -1.000000000000000000 ) ) ;
#194 = DIRECTION ( 'NONE',  ( 1.000000000000000000, 0.000000000000000000, 0.000000000000000000 ) ) ;
#195 = PRODUCT_RELATED_PRODUCT_CATEGORY ( 'detail', '', ( #164 ) ) ;
#196 = CALENDAR_DATE ( 2023, 12, 2 ) ;
#197 = FACE_OUTER_BOUND ( 'NONE', #123, .T. ) ;
#198 = CC_DESIGN_APPROVAL ( #66, ( #76 ) ) ;
#199 = PERSON_AND_ORGANIZATION ( #4, #6 ) ;
#200 = DIRECTION ( 'NONE',  ( -0.000000000000000000, -0.000000000000000000, -1.000000000000000000 ) ) ;
#201 = ADVANCED_FACE ( 'NONE', ( #46, #5 ), #25, .T. ) ;
#202 = CARTESIAN_POINT ( 'NONE',  ( 0.000000000000000000, 0.000000000000000000, 3.000000000000000000 ) ) ;
#203 = DIRECTION ( 'NONE',  ( 0.000000000000000000, 0.000000000000000000, 1.000000000000000000 ) ) ;
#204 = EDGE_CURVE ( 'NONE', #70, #147, #78, .T. ) ;
#205 = ORIENTED_EDGE ( 'NONE', *, *, #52, .F. ) ;
#206 = AXIS2_PLACEMENT_3D ( 'NONE', #251, #72, #40 ) ;
#207 = CARTESIAN_POINT ( 'NONE',  ( 0.000000000000000000, 0.000000000000000000, 3.000000000000000000 ) ) ;
#208 = EDGE_CURVE ( 'NONE', #115, #188, #51, .T. ) ;
#209 = APPLICATION_CONTEXT ( 'configuration controlled 3d designs of mechanical parts and assemblies' ) ;
#210 = CARTESIAN_POINT ( 'NONE',  ( -2.500000000000000000, 0.000000000000000000, 3.000000000000000000 ) ) ;
#211 = APPROVAL_ROLE ( '' ) ;
#212 = DESIGN_CONTEXT ( 'detailed design', #209, 'design' ) ;
#213 = DIRECTION ( 'NONE',  ( -1.000000000000000000, 0.000000000000000000, 0.000000000000000000 ) ) ;
#214 = FACE_OUTER_BOUND ( 'NONE', #65, .T. ) ;
#215 = MECHANICAL_CONTEXT ( 'NONE', #136, 'mechanical' ) ;
#216 = DIRECTION ( 'NONE',  ( 0.000000000000000000, 0.000000000000000000, 1.000000000000000000 ) ) ;
#217 = AXIS2_PLACEMENT_3D ( 'NONE', #190, #216, #151 ) ;
#218 = PERSON_AND_ORGANIZATION_ROLE ( 'design_owner' ) ;
#219 = DIRECTION ( 'NONE',  ( -0.000000000000000000, -0.000000000000000000, -1.000000000000000000 ) ) ;
#220 =( NAMED_UNIT ( * ) SI_UNIT ( $, .STERADIAN. ) SOLID_ANGLE_UNIT ( ) );
#221 = CARTESIAN_POINT ( 'NONE',  ( -2.500000000000000000, 0.000000000000000000, 125.0000000000000000 ) ) ;
#222 = DIRECTION ( 'NONE',  ( -1.000000000000000000, 0.000000000000000000, 0.000000000000000000 ) ) ;
#223 = SECURITY_CLASSIFICATION ( '', '', #82 ) ;
#224 = EDGE_CURVE ( 'NONE', #147, #81, #3, .T. ) ;
#225 = CC_DESIGN_PERSON_AND_ORGANIZATION_ASSIGNMENT ( #178, #35, ( #36 ) ) ;
#226 = CC_DESIGN_APPROVAL ( #26, ( #36 ) ) ;
#227 = ORIENTED_EDGE ( 'NONE', *, *, #45, .T. ) ;
#228 = ORIENTED_EDGE ( 'NONE', *, *, #152, .F. ) ;
#229 = ORIENTED_EDGE ( 'NONE', *, *, #52, .T. ) ;
#230 = CC_DESIGN_APPROVAL ( #98, ( #223 ) ) ;
#231 = DIRECTION ( 'NONE',  ( -0.000000000000000000, -0.000000000000000000, -1.000000000000000000 ) ) ;
#232 = APPROVAL_STATUS ( 'not_yet_approved' ) ;
#233 = DIRECTION ( 'NONE',  ( 0.000000000000000000, 0.000000000000000000, 1.000000000000000000 ) ) ;
#234 = CC_DESIGN_PERSON_AND_ORGANIZATION_ASSIGNMENT ( #74, #156, ( #36 ) ) ;
#235 = DIRECTION ( 'NONE',  ( 1.000000000000000000, 0.000000000000000000, 0.000000000000000000 ) ) ;
#236 = COORDINATED_UNIVERSAL_TIME_OFFSET ( 1, 0, .AHEAD. ) ;
#237 = CARTESIAN_POINT ( 'NONE',  ( 0.000000000000000000, 0.000000000000000000, 125.0000000000000000 ) ) ;
#238 = CALENDAR_DATE ( 2023, 12, 2 ) ;
#239 = DIRECTION ( 'NONE',  ( 1.000000000000000000, 0.000000000000000000, 0.000000000000000000 ) ) ;
#240 = CYLINDRICAL_SURFACE ( 'NONE', #133, 2.500000000000000000 ) ;
#241 =( NAMED_UNIT ( * ) PLANE_ANGLE_UNIT ( ) SI_UNIT ( $, .RADIAN. ) );
#242 = CC_DESIGN_DATE_AND_TIME_ASSIGNMENT ( #160, #124, ( #76 ) ) ;
#243 = AXIS2_PLACEMENT_3D ( 'NONE', #237, #138, #34 ) ;
#244 = COORDINATED_UNIVERSAL_TIME_OFFSET ( 1, 0, .AHEAD. ) ;
#245 = ADVANCED_FACE ( 'NONE', ( #83 ), #240, .T. ) ;
#246 = ADVANCED_BREP_SHAPE_REPRESENTATION ( '8853', ( #135, #206 ), #110 ) ;
#247 = ORIENTED_EDGE ( 'NONE', *, *, #118, .T. ) ;
#248 = EDGE_CURVE ( 'NONE', #13, #188, #7, .T. ) ;
#249 = DIRECTION ( 'NONE',  ( 0.000000000000000000, 0.000000000000000000, 1.000000000000000000 ) ) ;
#250 = DIRECTION ( 'NONE',  ( 1.000000000000000000, 0.000000000000000000, -0.000000000000000000 ) ) ;
#251 = CARTESIAN_POINT ( 'NONE',  ( 0.000000000000000000, 0.000000000000000000, 0.000000000000000000 ) ) ;
#252 = DIRECTION ( 'NONE',  ( -0.000000000000000000, -0.000000000000000000, -1.000000000000000000 ) ) ;
#253 = APPROVAL_DATE_TIME ( #176, #66 ) ;
#254 = CARTESIAN_POINT ( 'NONE',  ( 0.000000000000000000, 0.000000000000000000, 125.0000000000000000 ) ) ;
#255 = PERSON_AND_ORGANIZATION ( #4, #6 ) ;
ENDSEC;
END-ISO-10303-21;
