ISO-10303-21;
HEADER;
FILE_DESCRIPTION (( 'STEP AP203' ),
    '1' );
FILE_NAME ('ea62.STEP',
    '2023-02-12T12:00:34',
    ( '' ),
    ( '' ),
    'SwSTEP 2.0',
    'SolidWorks 2019',
    '' );
FILE_SCHEMA (( 'CONFIG_CONTROL_DESIGN' ));
ENDSEC;

DATA;
#1 = ADVANCED_FACE ( 'NONE', ( #70 ), #141, .T. ) ;
#2 = COORDINATED_UNIVERSAL_TIME_OFFSET ( 1, 0, .AHEAD. ) ;
#3 = DATE_AND_TIME ( #184, #23 ) ;
#4 = LINE ( 'NONE', #32, #143 ) ;
#5 = CIRCLE ( 'NONE', #155, 2.100000000000000089 ) ;
#6 = CC_DESIGN_APPROVAL ( #11, ( #118 ) ) ;
#7 = DIRECTION ( 'NONE',  ( -0.000000000000000000, -0.000000000000000000, -1.000000000000000000 ) ) ;
#8 = PERSON ( 'NEURÈENÝ', 'NEURÈENÝ', 'NEURÈENÝ', ('NEURÈENÝ'), ('NEURÈENÝ'), ('NEURÈENÝ') ) ;
#9 = ORIENTED_EDGE ( 'NONE', *, *, #243, .F. ) ;
#10 = FACE_OUTER_BOUND ( 'NONE', #17, .T. ) ;
#11 = APPROVAL ( #97, 'NEURÈENÝ' ) ;
#12 = ORIENTED_EDGE ( 'NONE', *, *, #211, .F. ) ;
#13 = AXIS2_PLACEMENT_3D ( 'NONE', #140, #103, #142 ) ;
#14 = ORIENTED_EDGE ( 'NONE', *, *, #195, .F. ) ;
#15 = VERTEX_POINT ( 'NONE', #85 ) ;
#16 = COORDINATED_UNIVERSAL_TIME_OFFSET ( 1, 0, .AHEAD. ) ;
#17 = EDGE_LOOP ( 'NONE', ( #192, #247, #185, #14 ) ) ;
#18 = MANIFOLD_SOLID_BREP ( 'Pøidat vysunutím3', #202 ) ;
#19 = APPROVAL_PERSON_ORGANIZATION ( #83, #75, #119 ) ;
#20 = DIRECTION ( 'NONE',  ( 0.000000000000000000, 0.000000000000000000, 1.000000000000000000 ) ) ;
#21 = DIRECTION ( 'NONE',  ( 1.000000000000000000, 0.000000000000000000, -0.000000000000000000 ) ) ;
#22 = CC_DESIGN_PERSON_AND_ORGANIZATION_ASSIGNMENT ( #134, #237, ( #238 ) ) ;
#23 = LOCAL_TIME ( 13, 0, 34.00000000000000000, #101 ) ;
#24 = DATE_AND_TIME ( #172, #135 ) ;
#25 = CC_DESIGN_APPROVAL ( #182, ( #238 ) ) ;
#26 = COORDINATED_UNIVERSAL_TIME_OFFSET ( 1, 0, .AHEAD. ) ;
#27 = PERSON_AND_ORGANIZATION ( #8, #153 ) ;
#28 = CARTESIAN_POINT ( 'NONE',  ( 4.000000000000000000, 4.898587196589412829E-16, 0.000000000000000000 ) ) ;
#29 = DIRECTION ( 'NONE',  ( 0.000000000000000000, 0.000000000000000000, 1.000000000000000000 ) ) ;
#30 = SECURITY_CLASSIFICATION ( '', '', #217 ) ;
#31 = CARTESIAN_POINT ( 'NONE',  ( 0.000000000000000000, 0.000000000000000000, 250.0000000000000000 ) ) ;
#32 = CARTESIAN_POINT ( 'NONE',  ( 4.000000000000000000, 4.898587196589412829E-16, 3.000000000000000000 ) ) ;
#33 = DIRECTION ( 'NONE',  ( 0.000000000000000000, 0.000000000000000000, 1.000000000000000000 ) ) ;
#34 = VERTEX_POINT ( 'NONE', #68 ) ;
#35 = AXIS2_PLACEMENT_3D ( 'NONE', #233, #228, #36 ) ;
#36 = DIRECTION ( 'NONE',  ( 1.000000000000000000, 0.000000000000000000, 0.000000000000000000 ) ) ;
#37 = ORIENTED_EDGE ( 'NONE', *, *, #102, .T. ) ;
#38 = ADVANCED_FACE ( 'NONE', ( #10 ), #108, .T. ) ;
#39 = APPLICATION_PROTOCOL_DEFINITION ( 'international standard', 'config_control_design', 1994, #159 ) ;
#40 = DIRECTION ( 'NONE',  ( 1.000000000000000000, 0.000000000000000000, 0.000000000000000000 ) ) ;
#41 = PRODUCT_RELATED_PRODUCT_CATEGORY ( 'detail', '', ( #136 ) ) ;
#42 = CIRCLE ( 'NONE', #239, 2.100000000000000089 ) ;
#43 = DATE_TIME_ROLE ( 'classification_date' ) ;
#44 = APPROVAL_DATE_TIME ( #24, #11 ) ;
#45 = PERSON_AND_ORGANIZATION ( #8, #153 ) ;
#46 = AXIS2_PLACEMENT_3D ( 'NONE', #207, #7, #87 ) ;
#47 = AXIS2_PLACEMENT_3D ( 'NONE', #107, #124, #49 ) ;
#48 = DIRECTION ( 'NONE',  ( 1.000000000000000000, 0.000000000000000000, 0.000000000000000000 ) ) ;
#49 = DIRECTION ( 'NONE',  ( -1.000000000000000000, 0.000000000000000000, 0.000000000000000000 ) ) ;
#50 = DIRECTION ( 'NONE',  ( -1.000000000000000000, 0.000000000000000000, 0.000000000000000000 ) ) ;
#51 = EDGE_LOOP ( 'NONE', ( #92, #12, #161, #72 ) ) ;
#52 = CARTESIAN_POINT ( 'NONE',  ( -4.000000000000000000, 0.000000000000000000, 3.000000000000000000 ) ) ;
#53 = DIRECTION ( 'NONE',  ( 0.000000000000000000, 0.000000000000000000, 1.000000000000000000 ) ) ;
#54 = VERTEX_POINT ( 'NONE', #28 ) ;
#55 = APPROVAL_PERSON_ORGANIZATION ( #78, #11, #60 ) ;
#56 = AXIS2_PLACEMENT_3D ( 'NONE', #249, #91, #132 ) ;
#57 = CARTESIAN_POINT ( 'NONE',  ( 0.000000000000000000, 0.000000000000000000, 250.0000000000000000 ) ) ;
#58 = FACE_OUTER_BOUND ( 'NONE', #168, .T. ) ;
#59 = PLANE ( 'NONE',  #64 ) ;
#60 = APPROVAL_ROLE ( '' ) ;
#61 = CALENDAR_DATE ( 2023, 12, 2 ) ;
#62 = APPROVAL_PERSON_ORGANIZATION ( #183, #182, #201 ) ;
#63 = PERSON_AND_ORGANIZATION ( #8, #153 ) ;
#64 = AXIS2_PLACEMENT_3D ( 'NONE', #57, #177, #95 ) ;
#65 = CARTESIAN_POINT ( 'NONE',  ( -2.100000000000000089, 0.000000000000000000, 250.0000000000000000 ) ) ;
#66 = LOCAL_TIME ( 13, 0, 34.00000000000000000, #26 ) ;
#67 = LINE ( 'NONE', #127, #254 ) ;
#68 = CARTESIAN_POINT ( 'NONE',  ( 2.100000000000000089, 2.571758278209441957E-16, 3.000000000000000000 ) ) ;
#69 = EDGE_CURVE ( 'NONE', #74, #209, #81, .T. ) ;
#70 = FACE_OUTER_BOUND ( 'NONE', #126, .T. ) ;
#71 = ORIENTED_EDGE ( 'NONE', *, *, #223, .F. ) ;
#72 = ORIENTED_EDGE ( 'NONE', *, *, #243, .T. ) ;
#73 =( NAMED_UNIT ( * ) PLANE_ANGLE_UNIT ( ) SI_UNIT ( $, .RADIAN. ) );
#74 = VERTEX_POINT ( 'NONE', #65 ) ;
#75 = APPROVAL ( #158, 'NEURÈENÝ' ) ;
#76 = CC_DESIGN_APPROVAL ( #75, ( #30 ) ) ;
#77 = CIRCLE ( 'NONE', #56, 4.000000000000000000 ) ;
#78 = PERSON_AND_ORGANIZATION ( #8, #153 ) ;
#79 = LINE ( 'NONE', #196, #82 ) ;
#80 = EDGE_CURVE ( 'NONE', #148, #54, #4, .T. ) ;
#81 = CIRCLE ( 'NONE', #113, 2.100000000000000089 ) ;
#82 = VECTOR ( 'NONE', #116, 1000.000000000000000 ) ;
#83 = PERSON_AND_ORGANIZATION ( #8, #153 ) ;
#84 = ADVANCED_FACE ( 'NONE', ( #163 ), #242, .T. ) ;
#85 = CARTESIAN_POINT ( 'NONE',  ( -4.000000000000000000, 0.000000000000000000, 0.000000000000000000 ) ) ;
#86 = ADVANCED_FACE ( 'NONE', ( #187 ), #206, .T. ) ;
#87 = DIRECTION ( 'NONE',  ( -1.000000000000000000, 0.000000000000000000, 0.000000000000000000 ) ) ;
#88 = DIRECTION ( 'NONE',  ( -0.000000000000000000, -0.000000000000000000, -1.000000000000000000 ) ) ;
#89 = DIRECTION ( 'NONE',  ( 0.000000000000000000, 0.000000000000000000, 1.000000000000000000 ) ) ;
#90 = ORIENTED_EDGE ( 'NONE', *, *, #234, .T. ) ;
#91 = DIRECTION ( 'NONE',  ( 0.000000000000000000, 0.000000000000000000, 1.000000000000000000 ) ) ;
#92 = ORIENTED_EDGE ( 'NONE', *, *, #80, .F. ) ;
#93 = DIRECTION ( 'NONE',  ( 0.000000000000000000, 0.000000000000000000, 1.000000000000000000 ) ) ;
#94 = ORIENTED_EDGE ( 'NONE', *, *, #162, .F. ) ;
#95 = DIRECTION ( 'NONE',  ( 1.000000000000000000, 0.000000000000000000, -0.000000000000000000 ) ) ;
#96 = CARTESIAN_POINT ( 'NONE',  ( 0.000000000000000000, 0.000000000000000000, 0.000000000000000000 ) ) ;
#97 = APPROVAL_STATUS ( 'not_yet_approved' ) ;
#98 = AXIS2_PLACEMENT_3D ( 'NONE', #111, #20, #251 ) ;
#99 = CALENDAR_DATE ( 2023, 12, 2 ) ;
#100 = DATE_AND_TIME ( #61, #180 ) ;
#101 = COORDINATED_UNIVERSAL_TIME_OFFSET ( 1, 0, .AHEAD. ) ;
#102 = EDGE_CURVE ( 'NONE', #209, #34, #188, .T. ) ;
#103 = DIRECTION ( 'NONE',  ( -0.000000000000000000, -0.000000000000000000, -1.000000000000000000 ) ) ;
#104 = PLANE ( 'NONE',  #156 ) ;
#105 = LOCAL_TIME ( 13, 0, 34.00000000000000000, #2 ) ;
#106 = DIRECTION ( 'NONE',  ( -0.000000000000000000, -0.000000000000000000, -1.000000000000000000 ) ) ;
#107 = CARTESIAN_POINT ( 'NONE',  ( 0.000000000000000000, 0.000000000000000000, 3.000000000000000000 ) ) ;
#108 = CYLINDRICAL_SURFACE ( 'NONE', #46, 4.000000000000000000 ) ;
#109 = CC_DESIGN_PERSON_AND_ORGANIZATION_ASSIGNMENT ( #27, #255, ( #238 ) ) ;
#110 = PERSON_AND_ORGANIZATION ( #8, #153 ) ;
#111 = CARTESIAN_POINT ( 'NONE',  ( 0.000000000000000000, 0.000000000000000000, 3.000000000000000000 ) ) ;
#112 = DIRECTION ( 'NONE',  ( 0.000000000000000000, 0.000000000000000000, 1.000000000000000000 ) ) ;
#113 = AXIS2_PLACEMENT_3D ( 'NONE', #221, #89, #245 ) ;
#114 = AXIS2_PLACEMENT_3D ( 'NONE', #131, #112, #174 ) ;
#115 = MECHANICAL_CONTEXT ( 'NONE', #159, 'mechanical' ) ;
#116 = DIRECTION ( 'NONE',  ( -0.000000000000000000, -0.000000000000000000, -1.000000000000000000 ) ) ;
#117 = DATE_TIME_ROLE ( 'creation_date' ) ;
#118 = PRODUCT_DEFINITION ( 'NEZNÁMÝ', '', #238, #210 ) ;
#119 = APPROVAL_ROLE ( '' ) ;
#120 = ADVANCED_FACE ( 'NONE', ( #165, #167 ), #104, .T. ) ;
#121 = VECTOR ( 'NONE', #244, 1000.000000000000000 ) ;
#122 = DATE_AND_TIME ( #181, #105 ) ;
#123 = CARTESIAN_POINT ( 'NONE',  ( 0.000000000000000000, 0.000000000000000000, 3.000000000000000000 ) ) ;
#124 = DIRECTION ( 'NONE',  ( -0.000000000000000000, -0.000000000000000000, -1.000000000000000000 ) ) ;
#125 = VERTEX_POINT ( 'NONE', #226 ) ;
#126 = EDGE_LOOP ( 'NONE', ( #190, #37, #225, #173 ) ) ;
#127 = CARTESIAN_POINT ( 'NONE',  ( -2.100000000000000089, 0.000000000000000000, 250.0000000000000000 ) ) ;
#128 =( GEOMETRIC_REPRESENTATION_CONTEXT ( 3 ) GLOBAL_UNCERTAINTY_ASSIGNED_CONTEXT ( ( #213 ) ) GLOBAL_UNIT_ASSIGNED_CONTEXT ( ( #150, #73, #253 ) ) REPRESENTATION_CONTEXT ( 'NONE', 'WORKASPACE' ) );
#129 = VERTEX_POINT ( 'NONE', #52 ) ;
#130 = EDGE_CURVE ( 'NONE', #209, #74, #5, .T. ) ;
#131 = CARTESIAN_POINT ( 'NONE',  ( 0.000000000000000000, 0.000000000000000000, 0.000000000000000000 ) ) ;
#132 = DIRECTION ( 'NONE',  ( 1.000000000000000000, 0.000000000000000000, 0.000000000000000000 ) ) ;
#133 = ADVANCED_BREP_SHAPE_REPRESENTATION ( 'ea62', ( #18, #35 ), #128 ) ;
#134 = PERSON_AND_ORGANIZATION ( #8, #153 ) ;
#135 = LOCAL_TIME ( 13, 0, 34.00000000000000000, #16 ) ;
#136 = PRODUCT ( 'ea62', 'ea62', '', ( #115 ) ) ;
#137 = CIRCLE ( 'NONE', #231, 4.000000000000000000 ) ;
#138 = SHAPE_DEFINITION_REPRESENTATION ( #160, #133 ) ;
#139 = CIRCLE ( 'NONE', #179, 2.100000000000000089 ) ;
#140 = CARTESIAN_POINT ( 'NONE',  ( 0.000000000000000000, 0.000000000000000000, 250.0000000000000000 ) ) ;
#141 = CYLINDRICAL_SURFACE ( 'NONE', #13, 2.100000000000000089 ) ;
#142 = DIRECTION ( 'NONE',  ( -1.000000000000000000, 0.000000000000000000, 0.000000000000000000 ) ) ;
#143 = VECTOR ( 'NONE', #88, 1000.000000000000000 ) ;
#144 = AXIS2_PLACEMENT_3D ( 'NONE', #96, #212, #21 ) ;
#145 = DIRECTION ( 'NONE',  ( 1.000000000000000000, 0.000000000000000000, -0.000000000000000000 ) ) ;
#146 = EDGE_CURVE ( 'NONE', #74, #125, #67, .T. ) ;
#147 = CARTESIAN_POINT ( 'NONE',  ( 0.000000000000000000, 0.000000000000000000, 3.000000000000000000 ) ) ;
#148 = VERTEX_POINT ( 'NONE', #208 ) ;
#149 = ORIENTED_EDGE ( 'NONE', *, *, #211, .T. ) ;
#150 =( LENGTH_UNIT ( ) NAMED_UNIT ( * ) SI_UNIT ( .MILLI., .METRE. ) );
#151 = CC_DESIGN_DATE_AND_TIME_ASSIGNMENT ( #3, #43, ( #30 ) ) ;
#152 = ORIENTED_EDGE ( 'NONE', *, *, #214, .T. ) ;
#153 = ORGANIZATION ( 'NEURÈENÝ', 'NEURÈENÝ', '' ) ;
#154 = DIRECTION ( 'NONE',  ( 1.000000000000000000, 0.000000000000000000, 0.000000000000000000 ) ) ;
#155 = AXIS2_PLACEMENT_3D ( 'NONE', #31, #29, #48 ) ;
#156 = AXIS2_PLACEMENT_3D ( 'NONE', #147, #33, #145 ) ;
#157 = APPROVAL_DATE_TIME ( #122, #182 ) ;
#158 = APPROVAL_STATUS ( 'not_yet_approved' ) ;
#159 = APPLICATION_CONTEXT ( 'configuration controlled 3d designs of mechanical parts and assemblies' ) ;
#160 = PRODUCT_DEFINITION_SHAPE ( 'NONE', 'NONE',  #118 ) ;
#161 = ORIENTED_EDGE ( 'NONE', *, *, #195, .T. ) ;
#162 = EDGE_CURVE ( 'NONE', #34, #125, #139, .T. ) ;
#163 = FACE_OUTER_BOUND ( 'NONE', #229, .T. ) ;
#164 = ORIENTED_EDGE ( 'NONE', *, *, #130, .T. ) ;
#165 = FACE_BOUND ( 'NONE', #248, .T. ) ;
#166 = ADVANCED_FACE ( 'NONE', ( #58 ), #59, .T. ) ;
#167 = FACE_OUTER_BOUND ( 'NONE', #232, .T. ) ;
#168 = EDGE_LOOP ( 'NONE', ( #250, #164 ) ) ;
#169 = CARTESIAN_POINT ( 'NONE',  ( 0.000000000000000000, 0.000000000000000000, 3.000000000000000000 ) ) ;
#170 = ORIENTED_EDGE ( 'NONE', *, *, #102, .F. ) ;
#171 = APPLICATION_CONTEXT ( 'configuration controlled 3d designs of mechanical parts and assemblies' ) ;
#172 = CALENDAR_DATE ( 2023, 12, 2 ) ;
#173 = ORIENTED_EDGE ( 'NONE', *, *, #146, .F. ) ;
#174 = DIRECTION ( 'NONE',  ( 1.000000000000000000, 0.000000000000000000, 0.000000000000000000 ) ) ;
#175 = CIRCLE ( 'NONE', #114, 4.000000000000000000 ) ;
#176 = CC_DESIGN_SECURITY_CLASSIFICATION ( #30, ( #238 ) ) ;
#177 = DIRECTION ( 'NONE',  ( 0.000000000000000000, 0.000000000000000000, 1.000000000000000000 ) ) ;
#178 = FACE_OUTER_BOUND ( 'NONE', #227, .T. ) ;
#179 = AXIS2_PLACEMENT_3D ( 'NONE', #123, #186, #40 ) ;
#180 = LOCAL_TIME ( 13, 0, 34.00000000000000000, #218 ) ;
#181 = CALENDAR_DATE ( 2023, 12, 2 ) ;
#182 = APPROVAL ( #199, 'NEURÈENÝ' ) ;
#183 = PERSON_AND_ORGANIZATION ( #8, #153 ) ;
#184 = CALENDAR_DATE ( 2023, 12, 2 ) ;
#185 = ORIENTED_EDGE ( 'NONE', *, *, #223, .T. ) ;
#186 = DIRECTION ( 'NONE',  ( 0.000000000000000000, 0.000000000000000000, 1.000000000000000000 ) ) ;
#187 = FACE_OUTER_BOUND ( 'NONE', #51, .T. ) ;
#188 = LINE ( 'NONE', #246, #121 ) ;
#189 = ORIENTED_EDGE ( 'NONE', *, *, #69, .F. ) ;
#190 = ORIENTED_EDGE ( 'NONE', *, *, #130, .F. ) ;
#191 = PERSON_AND_ORGANIZATION_ROLE ( 'design_owner' ) ;
#192 = ORIENTED_EDGE ( 'NONE', *, *, #234, .F. ) ;
#193 = DIRECTION ( 'NONE',  ( 1.000000000000000000, 0.000000000000000000, 0.000000000000000000 ) ) ;
#194 = PLANE ( 'NONE',  #144 ) ;
#195 = EDGE_CURVE ( 'NONE', #129, #15, #79, .T. ) ;
#196 = CARTESIAN_POINT ( 'NONE',  ( -4.000000000000000000, 0.000000000000000000, 3.000000000000000000 ) ) ;
#197 = PERSON_AND_ORGANIZATION_ROLE ( 'classification_officer' ) ;
#198 = CC_DESIGN_DATE_AND_TIME_ASSIGNMENT ( #100, #117, ( #118 ) ) ;
#199 = APPROVAL_STATUS ( 'not_yet_approved' ) ;
#200 = PERSON_AND_ORGANIZATION_ROLE ( 'creator' ) ;
#201 = APPROVAL_ROLE ( '' ) ;
#202 = CLOSED_SHELL ( 'NONE', ( #1, #38, #86, #120, #240, #84, #166 ) ) ;
#203 = CC_DESIGN_PERSON_AND_ORGANIZATION_ASSIGNMENT ( #63, #200, ( #118 ) ) ;
#204 = ORIENTED_EDGE ( 'NONE', *, *, #146, .T. ) ;
#205 = ORIENTED_EDGE ( 'NONE', *, *, #214, .F. ) ;
#206 = CYLINDRICAL_SURFACE ( 'NONE', #47, 4.000000000000000000 ) ;
#207 = CARTESIAN_POINT ( 'NONE',  ( 0.000000000000000000, 0.000000000000000000, 3.000000000000000000 ) ) ;
#208 = CARTESIAN_POINT ( 'NONE',  ( 4.000000000000000000, 4.898587196589412829E-16, 3.000000000000000000 ) ) ;
#209 = VERTEX_POINT ( 'NONE', #235 ) ;
#210 = DESIGN_CONTEXT ( 'detailed design', #171, 'design' ) ;
#211 = EDGE_CURVE ( 'NONE', #129, #148, #230, .T. ) ;
#212 = DIRECTION ( 'NONE',  ( 0.000000000000000000, 0.000000000000000000, 1.000000000000000000 ) ) ;
#213 = UNCERTAINTY_MEASURE_WITH_UNIT (LENGTH_MEASURE( 1.000000000000000082E-05 ), #150, 'distance_accuracy_value', 'NONE');
#214 = EDGE_CURVE ( 'NONE', #125, #34, #42, .T. ) ;
#215 = CARTESIAN_POINT ( 'NONE',  ( 0.000000000000000000, 0.000000000000000000, 3.000000000000000000 ) ) ;
#216 = CC_DESIGN_PERSON_AND_ORGANIZATION_ASSIGNMENT ( #110, #191, ( #136 ) ) ;
#217 = SECURITY_CLASSIFICATION_LEVEL ( 'unclassified' ) ;
#218 = COORDINATED_UNIVERSAL_TIME_OFFSET ( 1, 0, .AHEAD. ) ;
#219 = CC_DESIGN_PERSON_AND_ORGANIZATION_ASSIGNMENT ( #45, #197, ( #30 ) ) ;
#220 = AXIS2_PLACEMENT_3D ( 'NONE', #222, #224, #50 ) ;
#221 = CARTESIAN_POINT ( 'NONE',  ( 0.000000000000000000, 0.000000000000000000, 250.0000000000000000 ) ) ;
#222 = CARTESIAN_POINT ( 'NONE',  ( 0.000000000000000000, 0.000000000000000000, 250.0000000000000000 ) ) ;
#223 = EDGE_CURVE ( 'NONE', #54, #15, #175, .T. ) ;
#224 = DIRECTION ( 'NONE',  ( -0.000000000000000000, -0.000000000000000000, -1.000000000000000000 ) ) ;
#225 = ORIENTED_EDGE ( 'NONE', *, *, #162, .T. ) ;
#226 = CARTESIAN_POINT ( 'NONE',  ( -2.100000000000000089, 0.000000000000000000, 3.000000000000000000 ) ) ;
#227 = EDGE_LOOP ( 'NONE', ( #9, #71 ) ) ;
#228 = DIRECTION ( 'NONE',  ( 0.000000000000000000, 0.000000000000000000, 1.000000000000000000 ) ) ;
#229 = EDGE_LOOP ( 'NONE', ( #170, #189, #204, #152 ) ) ;
#230 = CIRCLE ( 'NONE', #98, 4.000000000000000000 ) ;
#231 = AXIS2_PLACEMENT_3D ( 'NONE', #169, #93, #193 ) ;
#232 = EDGE_LOOP ( 'NONE', ( #149, #90 ) ) ;
#233 = CARTESIAN_POINT ( 'NONE',  ( 0.000000000000000000, 0.000000000000000000, 0.000000000000000000 ) ) ;
#234 = EDGE_CURVE ( 'NONE', #148, #129, #137, .T. ) ;
#235 = CARTESIAN_POINT ( 'NONE',  ( 2.100000000000000089, 2.571758278209441957E-16, 250.0000000000000000 ) ) ;
#236 = APPROVAL_DATE_TIME ( #241, #75 ) ;
#237 = PERSON_AND_ORGANIZATION_ROLE ( 'design_supplier' ) ;
#238 = PRODUCT_DEFINITION_FORMATION_WITH_SPECIFIED_SOURCE ( 'LIBOVOLNÝ', '', #136, .NOT_KNOWN. ) ;
#239 = AXIS2_PLACEMENT_3D ( 'NONE', #215, #53, #154 ) ;
#240 = ADVANCED_FACE ( 'NONE', ( #178 ), #194, .F. ) ;
#241 = DATE_AND_TIME ( #99, #66 ) ;
#242 = CYLINDRICAL_SURFACE ( 'NONE', #220, 2.100000000000000089 ) ;
#243 = EDGE_CURVE ( 'NONE', #15, #54, #77, .T. ) ;
#244 = DIRECTION ( 'NONE',  ( -0.000000000000000000, -0.000000000000000000, -1.000000000000000000 ) ) ;
#245 = DIRECTION ( 'NONE',  ( 1.000000000000000000, 0.000000000000000000, 0.000000000000000000 ) ) ;
#246 = CARTESIAN_POINT ( 'NONE',  ( 2.100000000000000089, 2.571758278209441957E-16, 250.0000000000000000 ) ) ;
#247 = ORIENTED_EDGE ( 'NONE', *, *, #80, .T. ) ;
#248 = EDGE_LOOP ( 'NONE', ( #205, #94 ) ) ;
#249 = CARTESIAN_POINT ( 'NONE',  ( 0.000000000000000000, 0.000000000000000000, 0.000000000000000000 ) ) ;
#250 = ORIENTED_EDGE ( 'NONE', *, *, #69, .T. ) ;
#251 = DIRECTION ( 'NONE',  ( 1.000000000000000000, 0.000000000000000000, 0.000000000000000000 ) ) ;
#252 = APPLICATION_PROTOCOL_DEFINITION ( 'international standard', 'config_control_design', 1994, #171 ) ;
#253 =( NAMED_UNIT ( * ) SI_UNIT ( $, .STERADIAN. ) SOLID_ANGLE_UNIT ( ) );
#254 = VECTOR ( 'NONE', #106, 1000.000000000000000 ) ;
#255 = PERSON_AND_ORGANIZATION_ROLE ( 'creator' ) ;
ENDSEC;
END-ISO-10303-21;
